  0
SECTION
  2
HEADER
  9
$ACADVER
  1
AC1015
  9
$ACADMAINTVER
 70
     6
  9
$DWGCODEPAGE
  3
ANSI_1254
  9
$INSBASE
 10
0.0
 20
0.0
 30
0.0
  9
$EXTMIN
 10
0.0
 20
0.0
 30
0.0
  9
$EXTMAX
 10
279.4
 20
215.9
 30
0.0
  9
$LIMMIN
 10
0.0
 20
0.0
  9
$LIMMAX
 10
279.4
 20
215.9
  9
$ORTHOMODE
 70
     0
  9
$REGENMODE
 70
     1
  9
$FILLMODE
 70
     1
  9
$QTEXTMODE
 70
     0
  9
$MIRRTEXT
 70
     1
  9
$LTSCALE
 40
1.0
  9
$ATTMODE
 70
     1
  9
$TEXTSIZE
 40
3.5
  9
$TRACEWID
 40
1.0
  9
$TEXTSTYLE
  7
Standard
  9
$CLAYER
  8
0
  9
$CELTYPE
  6
ByLayer
  9
$CECOLOR
 62
   256
  9
$CELTSCALE
 40
1.0
  9
$DISPSILH
 70
     0
  9
$DIMSCALE
 40
1.0
  9
$DIMASZ
 40
3.5
  9
$DIMEXO
 40
1.0
  9
$DIMDLI
 40
3.75
  9
$DIMRND
 40
0.0
  9
$DIMDLE
 40
0.0
  9
$DIMEXE
 40
1.0
  9
$DIMTP
 40
0.0
  9
$DIMTM
 40
0.0
  9
$DIMTXT
 40
3.5
  9
$DIMCEN
 40
2.5
  9
$DIMTSZ
 40
0.0
  9
$DIMTOL
 70
     0
  9
$DIMLIM
 70
     0
  9
$DIMTIH
 70
     1
  9
$DIMTOH
 70
     1
  9
$DIMSE1
 70
     0
  9
$DIMSE2
 70
     0
  9
$DIMTAD
 70
     1
  9
$DIMZIN
 70
     0
  9
$DIMBLK
  1

  9
$DIMASO
 70
     1
  9
$DIMSHO
 70
     1
  9
$DIMPOST
  1

  9
$DIMAPOST
  1

  9
$DIMALT
 70
     0
  9
$DIMALTD
 70
     3
  9
$DIMALTF
 40
0.0393700787
  9
$DIMLFAC
 40
1.0
  9
$DIMTOFL
 70
     1
  9
$DIMTVP
 40
0.0
  9
$DIMTIX
 70
     0
  9
$DIMSOXD
 70
     0
  9
$DIMSAH
 70
     0
  9
$DIMBLK1
  1

  9
$DIMBLK2
  1

  9
$DIMSTYLE
  2
ISO-25
  9
$DIMCLRD
 70
     0
  9
$DIMCLRE
 70
     0
  9
$DIMCLRT
 70
     0
  9
$DIMTFAC
 40
1.0
  9
$DIMGAP
 40
1.524
  9
$DIMJUST
 70
     0
  9
$DIMSD1
 70
     0
  9
$DIMSD2
 70
     0
  9
$DIMTOLJ
 70
     0
  9
$DIMTZIN
 70
     0
  9
$DIMALTZ
 70
     0
  9
$DIMALTTZ
 70
     0
  9
$DIMUPT
 70
     0
  9
$DIMDEC
 70
     2
  9
$DIMTDEC
 70
     2
  9
$DIMALTU
 70
     2
  9
$DIMALTTD
 70
     3
  9
$DIMTXSTY
  7
Standard
  9
$DIMAUNIT
 70
     0
  9
$DIMADEC
 70
     2
  9
$DIMALTRND
 40
0.0
  9
$DIMAZIN
 70
     0
  9
$DIMDSEP
 70
    44
  9
$DIMATFIT
 70
     3
  9
$DIMFRAC
 70
     0
  9
$DIMLDRBLK
  1

  9
$DIMLUNIT
 70
     2
  9
$DIMLWD
 70
    -2
  9
$DIMLWE
 70
    -2
  9
$DIMTMOVE
 70
     0
  9
$LUNITS
 70
     2
  9
$LUPREC
 70
     2
  9
$SKETCHINC
 40
1.0
  9
$FILLETRAD
 40
10.0
  9
$AUNITS
 70
     0
  9
$AUPREC
 70
     2
  9
$MENU
  1
.
  9
$ELEVATION
 40
0.0
  9
$PELEVATION
 40
0.0
  9
$THICKNESS
 40
0.0
  9
$LIMCHECK
 70
     0
  9
$CHAMFERA
 40
0.0
  9
$CHAMFERB
 40
0.0
  9
$CHAMFERC
 40
0.0
  9
$CHAMFERD
 40
0.0
  9
$SKPOLY
 70
     0
  9
$TDCREATE
 40
2459741.592376771
  9
$TDUCREATE
 40
2459741.467376771
  9
$TDUPDATE
 40
2459741.592378368
  9
$TDUUPDATE
 40
2459741.467378368
  9
$TDINDWG
 40
0.0000000116
  9
$TDUSRTIMER
 40
0.0000000116
  9
$USRTIMER
 70
     1
  9
$ANGBASE
 50
0.0
  9
$ANGDIR
 70
     0
  9
$PDMODE
 70
     0
  9
$PDSIZE
 40
-1.0
  9
$PLINEWID
 40
0.0
  9
$SPLFRAME
 70
     0
  9
$SPLINETYPE
 70
     6
  9
$SPLINESEGS
 70
     8
  9
$HANDSEED
  5
11E
  9
$SURFTAB1
 70
     6
  9
$SURFTAB2
 70
     6
  9
$SURFTYPE
 70
     6
  9
$SURFU
 70
     6
  9
$SURFV
 70
     6
  9
$UCSBASE
  2

  9
$UCSNAME
  2

  9
$UCSORG
 10
0.0
 20
0.0
 30
0.0
  9
$UCSXDIR
 10
1.0
 20
0.0
 30
0.0
  9
$UCSYDIR
 10
0.0
 20
1.0
 30
0.0
  9
$UCSORTHOREF
  2

  9
$UCSORTHOVIEW
 70
     0
  9
$UCSORGTOP
 10
0.0
 20
0.0
 30
0.0
  9
$UCSORGBOTTOM
 10
0.0
 20
0.0
 30
0.0
  9
$UCSORGLEFT
 10
0.0
 20
0.0
 30
0.0
  9
$UCSORGRIGHT
 10
0.0
 20
0.0
 30
0.0
  9
$UCSORGFRONT
 10
0.0
 20
0.0
 30
0.0
  9
$UCSORGBACK
 10
0.0
 20
0.0
 30
0.0
  9
$PUCSBASE
  2

  9
$PUCSNAME
  2

  9
$PUCSORG
 10
0.0
 20
0.0
 30
0.0
  9
$PUCSXDIR
 10
1.0
 20
0.0
 30
0.0
  9
$PUCSYDIR
 10
0.0
 20
1.0
 30
0.0
  9
$PUCSORTHOREF
  2

  9
$PUCSORTHOVIEW
 70
     0
  9
$PUCSORGTOP
 10
0.0
 20
0.0
 30
0.0
  9
$PUCSORGBOTTOM
 10
0.0
 20
0.0
 30
0.0
  9
$PUCSORGLEFT
 10
0.0
 20
0.0
 30
0.0
  9
$PUCSORGRIGHT
 10
0.0
 20
0.0
 30
0.0
  9
$PUCSORGFRONT
 10
0.0
 20
0.0
 30
0.0
  9
$PUCSORGBACK
 10
0.0
 20
0.0
 30
0.0
  9
$USERI1
 70
     0
  9
$USERI2
 70
     0
  9
$USERI3
 70
     0
  9
$USERI4
 70
     0
  9
$USERI5
 70
     0
  9
$USERR1
 40
0.0
  9
$USERR2
 40
0.0
  9
$USERR3
 40
0.0
  9
$USERR4
 40
0.0
  9
$USERR5
 40
0.0
  9
$WORLDVIEW
 70
     1
  9
$SHADEDGE
 70
     3
  9
$SHADEDIF
 70
    70
  9
$TILEMODE
 70
     1
  9
$MAXACTVP
 70
    64
  9
$PINSBASE
 10
0.0
 20
0.0
 30
0.0
  9
$PLIMCHECK
 70
     0
  9
$PEXTMIN
 10
1.0000000000E+20
 20
1.0000000000E+20
 30
1.0000000000E+20
  9
$PEXTMAX
 10
-1.0000000000E+20
 20
-1.0000000000E+20
 30
-1.0000000000E+20
  9
$PLIMMIN
 10
0.0
 20
0.0
  9
$PLIMMAX
 10
420.0
 20
297.0
  9
$UNITMODE
 70
     0
  9
$VISRETAIN
 70
     1
  9
$PLINEGEN
 70
     0
  9
$PSLTSCALE
 70
     1
  9
$TREEDEPTH
 70
  3020
  9
$CMLSTYLE
  2
Standard
  9
$CMLJUST
 70
     0
  9
$CMLSCALE
 40
20.0
  9
$PROXYGRAPHICS
 70
     1
  9
$MEASUREMENT
 70
     1
  9
$CELWEIGHT
370
    -1
  9
$ENDCAPS
280
     0
  9
$JOINSTYLE
280
     0
  9
$LWDISPLAY
290
     1
  9
$INSUNITS
 70
     4
  9
$HYPERLINKBASE
  1

  9
$STYLESHEET
  1

  9
$XEDIT
290
     1
  9
$CEPSNTYPE
380
     0
  9
$PSTYLEMODE
290
     1
  9
$FINGERPRINTGUID
  2
{43e8f062-1b8e-4389-8af5-65e9e7d347de}
  9
$VERSIONGUID
  2
{FAEB1C32-E019-11D5-929B-00C0DF256EC4}
  9
$EXTNAMES
290
     1
  9
$PSVPSCALE
 40
0.0
  9
$OLESTARTUP
290
     0
  0
ENDSEC
  0
SECTION
  2
CLASSES
  0
CLASS
  1
ACDBDICTIONARYWDFLT
  2
AcDbDictionaryWithDefault
  3
ObjectDBX Classes
 90
        0
280
     0
281
     0
  0
CLASS
  1
VISUALSTYLE
  2
AcDbVisualStyle
  3
ObjectDBX Classes
 90
     4095
280
     0
281
     0
  0
CLASS
  1
MATERIAL
  2
AcDbMaterial
  3
ObjectDBX Classes
 90
     1153
280
     0
281
     0
  0
CLASS
  1
SCALE
  2
AcDbScale
  3
ObjectDBX Classes
 90
     1153
280
     0
281
     0
  0
CLASS
  1
TABLESTYLE
  2
AcDbTableStyle
  3
ObjectDBX Classes
 90
     4095
280
     0
281
     0
  0
CLASS
  1
MLEADERSTYLE
  2
AcDbMLeaderStyle
  3
ACDB_MLEADERSTYLE_CLASS
 90
     4095
280
     0
281
     0
  0
CLASS
  1
SUN
  2
AcDbSun
  3
SCENEOE
 90
     1153
280
     0
281
     0
  0
CLASS
  1
ACDBPLACEHOLDER
  2
AcDbPlaceHolder
  3
ObjectDBX Classes
 90
        0
280
     0
281
     0
  0
CLASS
  1
LAYOUT
  2
AcDbLayout
  3
ObjectDBX Classes
 90
        0
280
     0
281
     0
  0
ENDSEC
  0
SECTION
  2
TABLES
  0
TABLE
  2
VPORT
  5
8
330
0
100
AcDbSymbolTable
 70
     1
  0
VPORT
  5
29
330
8
100
AcDbSymbolTableRecord
100
AcDbViewportTableRecord
  2
*Active
 70
     0
 10
0.0
 20
0.0
 11
1.0
 21
1.0
 12
139.7
 22
107.95
 13
0.0
 23
0.0
 14
10.0
 24
10.0
 15
10.0
 25
10.0
 16
0.0
 26
0.0
 36
1.0
 17
0.0
 27
0.0
 37
0.0
 40
215.9
 41
1.2941176471
 42
50.0
 43
0.0
 44
0.0
 50
0.0
 51
0.0
 71
     0
 72
  2000
 73
     1
 74
     3
 75
     0
 76
     0
 77
     0
 78
     0
281
     0
 65
     1
110
0.0
120
0.0
130
0.0
111
1.0
121
0.0
131
0.0
112
0.0
122
1.0
132
0.0
 79
     0
146
0.0
  0
ENDTAB
  0
TABLE
  2
LTYPE
  5
5
330
0
100
AcDbSymbolTable
 70
     6
  0
LTYPE
  5
14
330
5
100
AcDbSymbolTableRecord
100
AcDbLinetypeTableRecord
  2
ByBlock
 70
     0
  3

 72
    65
 73
     0
 40
0.0
  0
LTYPE
  5
15
330
5
100
AcDbSymbolTableRecord
100
AcDbLinetypeTableRecord
  2
ByLayer
 70
     0
  3

 72
    65
 73
     0
 40
0.0
  0
LTYPE
  5
16
330
5
100
AcDbSymbolTableRecord
100
AcDbLinetypeTableRecord
  2
Continuous
 70
     0
  3
Solid line
 72
    65
 73
     0
 40
0.0
  0
LTYPE
  5
6E
330
5
100
AcDbSymbolTableRecord
100
AcDbLinetypeTableRecord
  2
HIDDEN
 70
     0
  3
Hidden __ __ __ __ __ __ __ __ __ __ __ __ __ __
 72
    65
 73
     2
 40
1.905
 49
1.27
 74
     0
 49
-0.635
 74
     0
  0
LTYPE
  5
6F
330
5
100
AcDbSymbolTableRecord
100
AcDbLinetypeTableRecord
  2
PHANTOM
 70
     0
  3
Phantom ______  __  __  ______  __  __  ______
 72
    65
 73
     6
 40
12.7
 49
6.35
 74
     0
 49
-1.27
 74
     0
 49
1.27
 74
     0
 49
-1.27
 74
     0
 49
1.27
 74
     0
 49
-1.27
 74
     0
  0
LTYPE
  5
70
330
5
100
AcDbSymbolTableRecord
100
AcDbLinetypeTableRecord
  2
CENTER
 70
     0
  3
Center ____ _ ____ _ ____ _ ____ _ ____ _ ____
 72
    65
 73
     4
 40
10.16
 49
6.35
 74
     0
 49
-1.27
 74
     0
 49
1.27
 74
     0
 49
-1.27
 74
     0
  0
LTYPE
  5
71
330
5
100
AcDbSymbolTableRecord
100
AcDbLinetypeTableRecord
  2
CENTERX2
 70
     0
  3
Center (2x) ________  __  ________  __  _____
 72
    65
 73
     4
 40
20.32
 49
12.7
 74
     0
 49
-2.54
 74
     0
 49
2.54
 74
     0
 49
-2.54
 74
     0
  0
LTYPE
  5
72
330
5
100
AcDbSymbolTableRecord
100
AcDbLinetypeTableRecord
  2
DOT2
 70
     0
  3
Dot (.5x) ........................................
 72
    65
 73
     2
 40
0.635
 49
0.0
 74
     0
 49
-0.635
 74
     0
  0
ENDTAB
  0
TABLE
  2
LAYER
  5
2
330
0
100
AcDbSymbolTable
 70
    17
  0
LAYER
  5
10
330
2
100
AcDbSymbolTableRecord
100
AcDbLayerTableRecord
  2
0
 70
     0
 62
     7
  6
Continuous
370
    -3
390
F
  0
LAYER
  5
73
330
2
100
AcDbSymbolTableRecord
100
AcDbLayerTableRecord
  2
FORMAT
 70
     0
 62
     7
  6
Continuous
370
    -3
390
F
  0
LAYER
  5
74
330
2
100
AcDbSymbolTableRecord
100
AcDbLayerTableRecord
  2
YARDIMCI_GEOMETRI
 70
     0
 62
    -6
  6
Continuous
290
     0
370
    -3
390
F
  0
LAYER
  5
75
330
2
100
AcDbSymbolTableRecord
100
AcDbLayerTableRecord
  2
SAYFA_CERCEVESI
 70
     0
 62
     7
  6
Continuous
370
    25
390
F
  0
LAYER
  5
76
330
2
100
AcDbSymbolTableRecord
100
AcDbLayerTableRecord
  2
ANTET
 70
     0
 62
     7
  6
Continuous
370
    -3
390
F
  0
LAYER
  5
77
330
2
100
AcDbSymbolTableRecord
100
AcDbLayerTableRecord
  2
OLCU
 70
     0
 62
   150
  6
Continuous
370
    -3
390
F
  0
LAYER
  5
78
330
2
100
AcDbSymbolTableRecord
100
AcDbLayerTableRecord
  2
METIN
 70
     0
 62
    96
  6
Continuous
370
    -3
390
F
  0
LAYER
  5
79
330
2
100
AcDbSymbolTableRecord
100
AcDbLayerTableRecord
  2
BALON
 70
     0
 62
     5
  6
Continuous
370
    -3
390
F
  0
LAYER
  5
7A
330
2
100
AcDbSymbolTableRecord
100
AcDbLayerTableRecord
  2
VURGU
 70
     0
 62
     7
  6
Continuous
370
    -3
390
F
  0
LAYER
  5
7B
330
2
100
AcDbSymbolTableRecord
100
AcDbLayerTableRecord
  2
SILIK
 70
     0
 62
     7
  6
Continuous
370
    -3
390
F
  0
LAYER
  5
7C
330
2
100
AcDbSymbolTableRecord
100
AcDbLayerTableRecord
  2
MODEL
 70
     0
 62
     7
  6
Continuous
370
    -3
390
F
  0
LAYER
  5
7D
330
2
100
AcDbSymbolTableRecord
100
AcDbLayerTableRecord
  2
DETAYLANDıRMA
 70
     0
 62
   190
  6
Continuous
370
    -3
390
F
  0
LAYER
  5
7E
330
2
100
AcDbSymbolTableRecord
100
AcDbLayerTableRecord
  2
TOLERANS
 70
     0
 62
   230
  6
Continuous
370
    -3
390
F
  0
LAYER
  5
7F
330
2
100
AcDbSymbolTableRecord
100
AcDbLayerTableRecord
  2
MERKEZ_CIZGILERI
 70
     0
 62
    30
  6
Continuous
370
    -3
390
F
  0
LAYER
  5
80
330
2
100
AcDbSymbolTableRecord
100
AcDbLayerTableRecord
  2
KESIT-DETAY_CIZGILERI
 70
     0
 62
     7
  6
Continuous
370
    -3
390
F
  0
LAYER
  5
81
330
2
100
AcDbSymbolTableRecord
100
AcDbLayerTableRecord
  2
\U+041E\U+0421\U+0415\U+0412\U+042B\U+0415
 70
     0
 62
     7
  6
Continuous
370
    -3
390
F
  0
LAYER
  5
82
330
2
100
AcDbSymbolTableRecord
100
AcDbLayerTableRecord
  2
\U+0412\U+041E\U+0414\U+042F\U+041D\U+042B\U+0415_\U+0417\U+041D\U+0410\U+041A\U+0418
 70
     0
 62
    11
  6
Continuous
370
    -3
390
F
  0
ENDTAB
  0
TABLE
  2
STYLE
  5
3
330
0
100
AcDbSymbolTable
 70
     1
  0
STYLE
  5
11
330
3
100
AcDbSymbolTableRecord
100
AcDbTextStyleTableRecord
  2
Standard
 70
     0
 40
0.0
 41
1.0
 50
0.0
 71
     0
 42
3.5
  3
txt
  4

  0
ENDTAB
  0
TABLE
  2
VIEW
  5
6
330
0
100
AcDbSymbolTable
 70
     0
  0
ENDTAB
  0
TABLE
  2
UCS
  5
7
330
0
100
AcDbSymbolTable
 70
     0
  0
ENDTAB
  0
TABLE
  2
APPID
  5
9
330
0
100
AcDbSymbolTable
 70
     1
  0
APPID
  5
12
330
9
100
AcDbSymbolTableRecord
100
AcDbRegAppTableRecord
  2
ACAD
 70
     0
  0
ENDTAB
  0
TABLE
  2
DIMSTYLE
  5
A
330
0
100
AcDbSymbolTable
 70
     1
100
AcDbDimStyleTable
  0
DIMSTYLE
105
27
330
A
100
AcDbSymbolTableRecord
100
AcDbDimStyleTableRecord
  2
ISO-25
 70
     0
 41
2.5
 42
0.625
 43
3.75
 44
1.25
 73
     0
 74
     0
 77
     1
 78
     8
140
2.5
141
2.5
143
0.0393700787
147
0.625
171
     3
172
     1
178
     0
271
     2
272
     2
274
     3
278
    44
283
     0
284
     8
340
11
  0
ENDTAB
  0
TABLE
  2
BLOCK_RECORD
  5
1
330
0
100
AcDbSymbolTable
 70
     6
  0
BLOCK_RECORD
  5
1F
330
1
100
AcDbSymbolTableRecord
100
AcDbBlockTableRecord
  2
*Model_Space
340
22
  0
BLOCK_RECORD
  5
1B
330
1
100
AcDbSymbolTableRecord
100
AcDbBlockTableRecord
  2
*Paper_Space
340
1E
  0
BLOCK_RECORD
  5
23
330
1
100
AcDbSymbolTableRecord
100
AcDbBlockTableRecord
  2
*Paper_Space0
340
26
  0
BLOCK_RECORD
  5
8F
330
1
100
AcDbSymbolTableRecord
100
AcDbBlockTableRecord
  2
SW_CENTERMARKSYMBOL_0
340
0
102
{BLKREFS
331
9A
102
}
  0
BLOCK_RECORD
  5
9B
330
1
100
AcDbSymbolTableRecord
100
AcDbBlockTableRecord
  2
SW_CENTERMARKSYMBOL_1
340
0
102
{BLKREFS
331
A6
102
}
  0
BLOCK_RECORD
  5
A7
330
1
100
AcDbSymbolTableRecord
100
AcDbBlockTableRecord
  2
SW_CENTERMARKSYMBOL_2
340
0
102
{BLKREFS
331
B2
102
}
  0
BLOCK_RECORD
  5
B3
330
1
100
AcDbSymbolTableRecord
100
AcDbBlockTableRecord
  2
SW_CENTERMARKSYMBOL_3
340
0
102
{BLKREFS
331
BE
102
}
  0
BLOCK_RECORD
  5
BF
330
1
100
AcDbSymbolTableRecord
100
AcDbBlockTableRecord
  2
SW_CENTERMARKSYMBOL_4
340
0
102
{BLKREFS
331
CA
102
}
  0
ENDTAB
  0
ENDSEC
  0
SECTION
  2
BLOCKS
  0
BLOCK
  5
20
330
1F
100
AcDbEntity
  8
0
100
AcDbBlockBegin
  2
*Model_Space
 70
     0
 10
0.0
 20
0.0
 30
0.0
  3
*Model_Space
  1

  0
ENDBLK
  5
21
330
1F
100
AcDbEntity
  8
0
100
AcDbBlockEnd
  0
BLOCK
  5
1C
330
1B
100
AcDbEntity
 67
     1
  8
0
100
AcDbBlockBegin
  2
*Paper_Space
 70
     0
 10
0.0
 20
0.0
 30
0.0
  3
*Paper_Space
  1

  0
ENDBLK
  5
1D
330
1B
100
AcDbEntity
 67
     1
  8
0
100
AcDbBlockEnd
  0
BLOCK
  5
24
330
23
100
AcDbEntity
  8
0
100
AcDbBlockBegin
  2
*Paper_Space0
 70
     0
 10
0.0
 20
0.0
 30
0.0
  3
*Paper_Space0
  1

  0
ENDBLK
  5
25
330
23
100
AcDbEntity
  8
0
100
AcDbBlockEnd
  0
BLOCK
  5
90
330
8F
100
AcDbEntity
  8
0
100
AcDbBlockBegin
  2
SW_CENTERMARKSYMBOL_0
 70
     0
 10
0.0
 20
0.0
 30
0.0
  3
SW_CENTERMARKSYMBOL_0
  1

  0
LINE
  5
92
330
8F
100
AcDbEntity
  8
FORMAT
 62
     0
100
AcDbLine
 10
0.0
 20
0.0
 30
0.0
 11
0.0
 21
2.5
 31
0.0
  0
LINE
  5
93
330
8F
100
AcDbEntity
  8
FORMAT
 62
     0
100
AcDbLine
 10
0.0
 20
0.0
 30
0.0
 11
-2.5
 21
0.0
 31
0.0
  0
LINE
  5
94
330
8F
100
AcDbEntity
  8
FORMAT
 62
     0
100
AcDbLine
 10
0.0
 20
0.0
 30
0.0
 11
0.0
 21
-2.5
 31
0.0
  0
LINE
  5
95
330
8F
100
AcDbEntity
  8
FORMAT
 62
     0
100
AcDbLine
 10
0.0
 20
0.0
 30
0.0
 11
2.5
 21
0.0
 31
0.0
  0
LINE
  5
96
330
8F
100
AcDbEntity
  8
FORMAT
 62
     0
100
AcDbLine
 10
0.0
 20
5.0
 30
0.0
 11
0.0
 21
50.0
 31
0.0
  0
LINE
  5
97
330
8F
100
AcDbEntity
  8
FORMAT
 62
     0
100
AcDbLine
 10
-5.0
 20
0.0
 30
0.0
 11
-50.0
 21
0.0
 31
0.0
  0
LINE
  5
98
330
8F
100
AcDbEntity
  8
FORMAT
 62
     0
100
AcDbLine
 10
0.0
 20
-5.0
 30
0.0
 11
0.0
 21
-50.0
 31
0.0
  0
LINE
  5
99
330
8F
100
AcDbEntity
  8
FORMAT
 62
     0
100
AcDbLine
 10
5.0
 20
0.0
 30
0.0
 11
50.0
 21
0.0
 31
0.0
  0
ENDBLK
  5
91
330
8F
100
AcDbEntity
  8
0
100
AcDbBlockEnd
  0
BLOCK
  5
9C
330
9B
100
AcDbEntity
  8
0
100
AcDbBlockBegin
  2
SW_CENTERMARKSYMBOL_1
 70
     0
 10
0.0
 20
0.0
 30
0.0
  3
SW_CENTERMARKSYMBOL_1
  1

  0
LINE
  5
9E
330
9B
100
AcDbEntity
  8
FORMAT
 62
     0
100
AcDbLine
 10
0.0
 20
0.0
 30
0.0
 11
0.0
 21
2.5
 31
0.0
  0
LINE
  5
9F
330
9B
100
AcDbEntity
  8
FORMAT
 62
     0
100
AcDbLine
 10
0.0
 20
0.0
 30
0.0
 11
-2.5
 21
0.0
 31
0.0
  0
LINE
  5
A0
330
9B
100
AcDbEntity
  8
FORMAT
 62
     0
100
AcDbLine
 10
0.0
 20
0.0
 30
0.0
 11
0.0
 21
-2.5
 31
0.0
  0
LINE
  5
A1
330
9B
100
AcDbEntity
  8
FORMAT
 62
     0
100
AcDbLine
 10
0.0
 20
0.0
 30
0.0
 11
2.5
 21
0.0
 31
0.0
  0
LINE
  5
A2
330
9B
100
AcDbEntity
  8
FORMAT
 62
     0
100
AcDbLine
 10
0.0
 20
5.0
 30
0.0
 11
0.0
 21
9.5
 31
0.0
  0
LINE
  5
A3
330
9B
100
AcDbEntity
  8
FORMAT
 62
     0
100
AcDbLine
 10
-5.0
 20
0.0
 30
0.0
 11
-9.5
 21
0.0
 31
0.0
  0
LINE
  5
A4
330
9B
100
AcDbEntity
  8
FORMAT
 62
     0
100
AcDbLine
 10
0.0
 20
-5.0
 30
0.0
 11
0.0
 21
-9.5
 31
0.0
  0
LINE
  5
A5
330
9B
100
AcDbEntity
  8
FORMAT
 62
     0
100
AcDbLine
 10
5.0
 20
0.0
 30
0.0
 11
9.5
 21
0.0
 31
0.0
  0
ENDBLK
  5
9D
330
9B
100
AcDbEntity
  8
0
100
AcDbBlockEnd
  0
BLOCK
  5
A8
330
A7
100
AcDbEntity
  8
0
100
AcDbBlockBegin
  2
SW_CENTERMARKSYMBOL_2
 70
     0
 10
0.0
 20
0.0
 30
0.0
  3
SW_CENTERMARKSYMBOL_2
  1

  0
LINE
  5
AA
330
A7
100
AcDbEntity
  8
FORMAT
 62
     0
100
AcDbLine
 10
0.0
 20
0.0
 30
0.0
 11
0.0
 21
2.5
 31
0.0
  0
LINE
  5
AB
330
A7
100
AcDbEntity
  8
FORMAT
 62
     0
100
AcDbLine
 10
0.0
 20
0.0
 30
0.0
 11
-2.5
 21
0.0
 31
0.0
  0
LINE
  5
AC
330
A7
100
AcDbEntity
  8
FORMAT
 62
     0
100
AcDbLine
 10
0.0
 20
0.0
 30
0.0
 11
0.0
 21
-2.5
 31
0.0
  0
LINE
  5
AD
330
A7
100
AcDbEntity
  8
FORMAT
 62
     0
100
AcDbLine
 10
0.0
 20
0.0
 30
0.0
 11
2.5
 21
0.0
 31
0.0
  0
LINE
  5
AE
330
A7
100
AcDbEntity
  8
FORMAT
 62
     0
100
AcDbLine
 10
0.0
 20
5.0
 30
0.0
 11
0.0
 21
9.5
 31
0.0
  0
LINE
  5
AF
330
A7
100
AcDbEntity
  8
FORMAT
 62
     0
100
AcDbLine
 10
-5.0
 20
0.0
 30
0.0
 11
-9.5
 21
0.0
 31
0.0
  0
LINE
  5
B0
330
A7
100
AcDbEntity
  8
FORMAT
 62
     0
100
AcDbLine
 10
0.0
 20
-5.0
 30
0.0
 11
0.0
 21
-9.5
 31
0.0
  0
LINE
  5
B1
330
A7
100
AcDbEntity
  8
FORMAT
 62
     0
100
AcDbLine
 10
5.0
 20
0.0
 30
0.0
 11
9.5
 21
0.0
 31
0.0
  0
ENDBLK
  5
A9
330
A7
100
AcDbEntity
  8
0
100
AcDbBlockEnd
  0
BLOCK
  5
B4
330
B3
100
AcDbEntity
  8
0
100
AcDbBlockBegin
  2
SW_CENTERMARKSYMBOL_3
 70
     0
 10
0.0
 20
0.0
 30
0.0
  3
SW_CENTERMARKSYMBOL_3
  1

  0
LINE
  5
B6
330
B3
100
AcDbEntity
  8
FORMAT
 62
     0
100
AcDbLine
 10
0.0
 20
0.0
 30
0.0
 11
0.0
 21
2.5
 31
0.0
  0
LINE
  5
B7
330
B3
100
AcDbEntity
  8
FORMAT
 62
     0
100
AcDbLine
 10
0.0
 20
0.0
 30
0.0
 11
-2.5
 21
0.0
 31
0.0
  0
LINE
  5
B8
330
B3
100
AcDbEntity
  8
FORMAT
 62
     0
100
AcDbLine
 10
0.0
 20
0.0
 30
0.0
 11
0.0
 21
-2.5
 31
0.0
  0
LINE
  5
B9
330
B3
100
AcDbEntity
  8
FORMAT
 62
     0
100
AcDbLine
 10
0.0
 20
0.0
 30
0.0
 11
2.5
 21
0.0
 31
0.0
  0
LINE
  5
BA
330
B3
100
AcDbEntity
  8
FORMAT
 62
     0
100
AcDbLine
 10
0.0
 20
5.0
 30
0.0
 11
0.0
 21
9.5
 31
0.0
  0
LINE
  5
BB
330
B3
100
AcDbEntity
  8
FORMAT
 62
     0
100
AcDbLine
 10
-5.0
 20
0.0
 30
0.0
 11
-9.5
 21
0.0
 31
0.0
  0
LINE
  5
BC
330
B3
100
AcDbEntity
  8
FORMAT
 62
     0
100
AcDbLine
 10
0.0
 20
-5.0
 30
0.0
 11
0.0
 21
-9.5
 31
0.0
  0
LINE
  5
BD
330
B3
100
AcDbEntity
  8
FORMAT
 62
     0
100
AcDbLine
 10
5.0
 20
0.0
 30
0.0
 11
9.5
 21
0.0
 31
0.0
  0
ENDBLK
  5
B5
330
B3
100
AcDbEntity
  8
0
100
AcDbBlockEnd
  0
BLOCK
  5
C0
330
BF
100
AcDbEntity
  8
0
100
AcDbBlockBegin
  2
SW_CENTERMARKSYMBOL_4
 70
     0
 10
0.0
 20
0.0
 30
0.0
  3
SW_CENTERMARKSYMBOL_4
  1

  0
LINE
  5
C2
330
BF
100
AcDbEntity
  8
FORMAT
 62
     0
100
AcDbLine
 10
0.0
 20
0.0
 30
0.0
 11
0.0
 21
2.5
 31
0.0
  0
LINE
  5
C3
330
BF
100
AcDbEntity
  8
FORMAT
 62
     0
100
AcDbLine
 10
0.0
 20
0.0
 30
0.0
 11
-2.5
 21
0.0
 31
0.0
  0
LINE
  5
C4
330
BF
100
AcDbEntity
  8
FORMAT
 62
     0
100
AcDbLine
 10
0.0
 20
0.0
 30
0.0
 11
0.0
 21
-2.5
 31
0.0
  0
LINE
  5
C5
330
BF
100
AcDbEntity
  8
FORMAT
 62
     0
100
AcDbLine
 10
0.0
 20
0.0
 30
0.0
 11
2.5
 21
0.0
 31
0.0
  0
LINE
  5
C6
330
BF
100
AcDbEntity
  8
FORMAT
 62
     0
100
AcDbLine
 10
0.0
 20
5.0
 30
0.0
 11
0.0
 21
9.5
 31
0.0
  0
LINE
  5
C7
330
BF
100
AcDbEntity
  8
FORMAT
 62
     0
100
AcDbLine
 10
-5.0
 20
0.0
 30
0.0
 11
-9.5
 21
0.0
 31
0.0
  0
LINE
  5
C8
330
BF
100
AcDbEntity
  8
FORMAT
 62
     0
100
AcDbLine
 10
0.0
 20
-5.0
 30
0.0
 11
0.0
 21
-9.5
 31
0.0
  0
LINE
  5
C9
330
BF
100
AcDbEntity
  8
FORMAT
 62
     0
100
AcDbLine
 10
5.0
 20
0.0
 30
0.0
 11
9.5
 21
0.0
 31
0.0
  0
ENDBLK
  5
C1
330
BF
100
AcDbEntity
  8
0
100
AcDbBlockEnd
  0
ENDSEC
  0
SECTION
  2
ENTITIES
  0
CIRCLE
  5
83
330
1F
100
AcDbEntity
  8
0
  6
Continuous
 62
     7
370
    25
100
AcDbCircle
 10
140.6178896819
 20
102.0140104857
 30
0.0
 40
7.999999999999972
  0
CIRCLE
  5
84
330
1F
100
AcDbEntity
  8
0
  6
Continuous
 62
     7
370
    25
100
AcDbCircle
 10
140.6178896819
 20
167.0140104857
 30
0.0
 40
8.0
  0
CIRCLE
  5
85
330
1F
100
AcDbEntity
  8
0
  6
Continuous
 62
     7
370
    25
100
AcDbCircle
 10
140.6178896819
 20
134.5140104857
 30
0.0
 40
46.5
  0
CIRCLE
  5
86
330
1F
100
AcDbEntity
  8
0
  6
Continuous
 62
     7
370
    25
100
AcDbCircle
 10
140.6178896819
 20
134.5140104857
 30
0.0
 40
15.0
  0
CIRCLE
  5
87
330
1F
100
AcDbEntity
  8
0
  6
Continuous
 62
     7
370
    25
100
AcDbCircle
 10
173.1178896819
 20
134.5140104857
 30
0.0
 40
8.0
  0
CIRCLE
  5
88
330
1F
100
AcDbEntity
  8
0
  6
Continuous
 62
     7
370
    25
100
AcDbCircle
 10
108.1178896819
 20
134.5140104857
 30
0.0
 40
8.0
  0
CIRCLE
  5
89
330
1F
100
AcDbEntity
  8
0
  6
Continuous
 62
     7
370
    25
100
AcDbCircle
 10
140.6178896819
 20
134.5140104857
 30
0.0
 40
14.0
  0
CIRCLE
  5
8A
330
1F
100
AcDbEntity
  8
0
  6
Continuous
 62
     7
370
    25
100
AcDbCircle
 10
140.6178896819
 20
134.5140104857
 30
0.0
 40
47.5
  0
CIRCLE
  5
8B
330
1F
100
AcDbEntity
  8
0
  6
Continuous
 62
     7
370
    25
100
AcDbCircle
 10
140.6178896819
 20
167.0140104857
 30
0.0
 40
7.0
  0
CIRCLE
  5
8C
330
1F
100
AcDbEntity
  8
0
  6
Continuous
 62
     7
370
    25
100
AcDbCircle
 10
108.1178896819
 20
134.5140104857
 30
0.0
 40
7.0
  0
CIRCLE
  5
8D
330
1F
100
AcDbEntity
  8
0
  6
Continuous
 62
     7
370
    25
100
AcDbCircle
 10
173.1178896819
 20
134.5140104857
 30
0.0
 40
7.0
  0
CIRCLE
  5
8E
330
1F
100
AcDbEntity
  8
0
  6
Continuous
 62
     7
370
    25
100
AcDbCircle
 10
140.6178896819
 20
102.0140104857
 30
0.0
 40
6.999999999999972
  0
INSERT
  5
9A
330
1F
100
AcDbEntity
  8
FORMAT
 62
     7
100
AcDbBlockReference
  2
SW_CENTERMARKSYMBOL_0
 10
140.6178896819
 20
134.5140104857
 30
0.0
  0
INSERT
  5
A6
330
1F
100
AcDbEntity
  8
FORMAT
 62
     7
100
AcDbBlockReference
  2
SW_CENTERMARKSYMBOL_1
 10
140.6178896819
 20
167.0140104857
 30
0.0
  0
INSERT
  5
B2
330
1F
100
AcDbEntity
  8
FORMAT
 62
     7
100
AcDbBlockReference
  2
SW_CENTERMARKSYMBOL_2
 10
173.1178896819
 20
134.5140104857
 30
0.0
  0
INSERT
  5
BE
330
1F
100
AcDbEntity
  8
FORMAT
 62
     7
100
AcDbBlockReference
  2
SW_CENTERMARKSYMBOL_3
 10
140.6178896819
 20
102.0140104857
 30
0.0
  0
INSERT
  5
CA
330
1F
100
AcDbEntity
  8
FORMAT
 62
     7
100
AcDbBlockReference
  2
SW_CENTERMARKSYMBOL_4
 10
108.1178896819
 20
134.5140104857
 30
0.0
  0
ARC
  5
CB
330
1F
100
AcDbEntity
  8
0
  6
Continuous
 62
     7
370
    25
100
AcDbCircle
 10
31.7071768641
 20
88.0140104857
 30
0.0
 40
1.000000000000004
100
AcDbArc
 50
270.0
 51
0.0
  0
ARC
  5
CC
330
1F
100
AcDbEntity
  8
0
  6
Continuous
 62
     7
370
    25
100
AcDbCircle
 10
31.7071768641
 20
181.0140104857
 30
0.0
 40
1.000000000000004
100
AcDbArc
 50
0.0
 51
90.0
  0
LINE
  5
CD
330
1F
100
AcDbEntity
  8
0
  6
Continuous
 62
     7
370
    25
100
AcDbLine
 10
31.7071768641
 20
182.0140104857
 30
0.0
 11
21.7071768641
 21
182.0140104857
 31
0.0
  0
LINE
  5
CE
330
1F
100
AcDbEntity
  8
0
  6
Continuous
 62
     7
370
    25
100
AcDbLine
 10
21.7071768641
 20
87.0140104857
 30
0.0
 11
31.7071768641
 21
87.0140104857
 31
0.0
  0
ARC
  5
CF
330
1F
100
AcDbEntity
  8
0
  6
Continuous
 62
     7
370
    25
100
AcDbCircle
 10
21.7071768641
 20
88.0140104857
 30
0.0
 40
1.000000000000004
100
AcDbArc
 50
180.0
 51
270.0
  0
ARC
  5
D0
330
1F
100
AcDbEntity
  8
0
  6
Continuous
 62
     7
370
    25
100
AcDbCircle
 10
21.7071768641
 20
181.0140104857
 30
0.0
 40
1.000000000000004
100
AcDbArc
 50
90.0
 51
180.0
  0
LINE
  5
D1
330
1F
100
AcDbEntity
  8
0
  6
Continuous
 62
     7
370
    25
100
AcDbLine
 10
32.7071768641
 20
134.5140104857
 30
0.0
 11
32.7071768641
 21
88.0140104857
 31
0.0
  0
LINE
  5
D2
330
1F
100
AcDbEntity
  8
0
  6
Continuous
 62
     7
370
    25
100
AcDbLine
 10
32.7071768641
 20
181.0140104857
 30
0.0
 11
32.7071768641
 21
134.5140104857
 31
0.0
  0
LINE
  5
D3
330
1F
100
AcDbEntity
  8
0
  6
Continuous
 62
     7
370
    25
100
AcDbLine
 10
20.7071768641
 20
134.5140104857
 30
0.0
 11
20.7071768641
 21
181.0140104857
 31
0.0
  0
LINE
  5
D4
330
1F
100
AcDbEntity
  8
0
  6
Continuous
 62
     7
370
    25
100
AcDbLine
 10
20.7071768641
 20
88.0140104857
 30
0.0
 11
20.7071768641
 21
134.5140104857
 31
0.0
  0
LINE
  5
D5
330
1F
100
AcDbEntity
  8
0
  6
Continuous
 62
     1
370
    25
100
AcDbLine
 10
31.7071768641
 20
134.5140104857
 30
0.0
 11
31.7071768641
 21
182.0140104857
 31
0.0
  0
LINE
  5
D6
330
1F
100
AcDbEntity
  8
0
  6
Continuous
 62
     1
370
    25
100
AcDbLine
 10
31.7071768641
 20
87.0140104857
 30
0.0
 11
31.7071768641
 21
134.5140104857
 31
0.0
  0
LINE
  5
D7
330
1F
100
AcDbEntity
  8
0
  6
Continuous
 62
     1
370
    25
100
AcDbLine
 10
21.7071768641
 20
134.5140104857
 30
0.0
 11
21.7071768641
 21
87.0140104857
 31
0.0
  0
LINE
  5
D8
330
1F
100
AcDbEntity
  8
0
  6
Continuous
 62
     1
370
    25
100
AcDbLine
 10
21.7071768641
 20
182.0140104857
 30
0.0
 11
21.7071768641
 21
134.5140104857
 31
0.0
  0
ARC
  5
D9
330
1F
100
AcDbEntity
  8
0
  6
Continuous
 62
     7
370
    25
100
AcDbCircle
 10
227.7435504725
 20
181.0140104857
 30
0.0
 40
1.0
100
AcDbArc
 50
90.0
 51
180.0
  0
ARC
  5
DA
330
1F
100
AcDbEntity
  8
0
  6
Continuous
 62
     7
370
    25
100
AcDbCircle
 10
227.7435504725
 20
88.0140104857
 30
0.0
 40
1.0
100
AcDbArc
 50
180.0
 51
270.0
  0
LINE
  5
DB
330
1F
100
AcDbEntity
  8
0
  6
Continuous
 62
     7
370
    25
100
AcDbLine
 10
227.7435504725
 20
87.0140104857
 30
0.0
 11
237.7435504725
 21
87.0140104857
 31
0.0
  0
LINE
  5
DC
330
1F
100
AcDbEntity
  8
0
  6
Continuous
 62
     7
370
    25
100
AcDbLine
 10
237.7435504725
 20
182.0140104857
 30
0.0
 11
227.7435504725
 21
182.0140104857
 31
0.0
  0
ARC
  5
DD
330
1F
100
AcDbEntity
  8
0
  6
Continuous
 62
     7
370
    25
100
AcDbCircle
 10
237.7435504725
 20
181.0140104857
 30
0.0
 40
1.0
100
AcDbArc
 50
0.0
 51
90.0
  0
ARC
  5
DE
330
1F
100
AcDbEntity
  8
0
  6
Continuous
 62
     7
370
    25
100
AcDbCircle
 10
237.7435504725
 20
88.0140104857
 30
0.0
 40
1.0
100
AcDbArc
 50
270.0
 51
0.0
  0
LINE
  5
DF
330
1F
100
AcDbEntity
  8
0
  6
Continuous
 62
     7
370
    25
100
AcDbLine
 10
226.7435504725
 20
88.0140104857
 30
0.0
 11
226.7435504725
 21
181.0140104857
 31
0.0
  0
LINE
  5
E0
330
1F
100
AcDbEntity
  8
0
  6
Continuous
 62
     7
370
    25
100
AcDbLine
 10
238.7435504725
 20
181.0140104857
 30
0.0
 11
238.7435504725
 21
88.0140104857
 31
0.0
  0
LINE
  5
E1
330
1F
100
AcDbEntity
  8
0
  6
Continuous
 62
     1
370
    25
100
AcDbLine
 10
227.7435504725
 20
182.0140104857
 30
0.0
 11
227.7435504725
 21
87.0140104857
 31
0.0
  0
LINE
  5
E2
330
1F
100
AcDbEntity
  8
0
  6
Continuous
 62
     1
370
    25
100
AcDbLine
 10
237.7435504725
 20
87.0140104857
 30
0.0
 11
237.7435504725
 21
182.0140104857
 31
0.0
  0
ARC
  5
E3
330
1F
100
AcDbEntity
  8
0
  6
Continuous
 62
     7
370
    25
100
AcDbCircle
 10
94.1178896819
 20
201.4698261197
 30
0.0
 40
1.0
100
AcDbArc
 50
180.0
 51
270.0
  0
ARC
  5
E4
330
1F
100
AcDbEntity
  8
0
  6
Continuous
 62
     7
370
    25
100
AcDbCircle
 10
187.1178896819
 20
201.4698261197
 30
0.0
 40
1.0
100
AcDbArc
 50
270.0
 51
0.0
  0
LINE
  5
E5
330
1F
100
AcDbEntity
  8
0
  6
Continuous
 62
     7
370
    25
100
AcDbLine
 10
188.1178896819
 20
201.4698261197
 30
0.0
 11
188.1178896819
 21
211.4698261197
 31
0.0
  0
LINE
  5
E6
330
1F
100
AcDbEntity
  8
0
  6
Continuous
 62
     7
370
    25
100
AcDbLine
 10
93.1178896819
 20
211.4698261197
 30
0.0
 11
93.1178896819
 21
201.4698261197
 31
0.0
  0
ARC
  5
E7
330
1F
100
AcDbEntity
  8
0
  6
Continuous
 62
     7
370
    25
100
AcDbCircle
 10
94.1178896819
 20
211.4698261197
 30
0.0
 40
1.0
100
AcDbArc
 50
90.0
 51
180.0
  0
ARC
  5
E8
330
1F
100
AcDbEntity
  8
0
  6
Continuous
 62
     7
370
    25
100
AcDbCircle
 10
187.1178896819
 20
211.4698261197
 30
0.0
 40
1.0
100
AcDbArc
 50
0.0
 51
90.0
  0
LINE
  5
E9
330
1F
100
AcDbEntity
  8
0
  6
Continuous
 62
     7
370
    25
100
AcDbLine
 10
187.1178896819
 20
200.4698261197
 30
0.0
 11
94.1178896825
 21
200.4698261197
 31
0.0
  0
LINE
  5
EA
330
1F
100
AcDbEntity
  8
0
  6
Continuous
 62
     7
370
    25
100
AcDbLine
 10
94.1178896825
 20
212.4698261197
 30
0.0
 11
187.1178896819
 21
212.4698261197
 31
0.0
  0
LINE
  5
EB
330
1F
100
AcDbEntity
  8
0
  6
Continuous
 62
     1
370
    25
100
AcDbLine
 10
93.1178896819
 20
201.4698261197
 30
0.0
 11
188.1178896819
 21
201.4698261197
 31
0.0
  0
LINE
  5
EC
330
1F
100
AcDbEntity
  8
0
  6
Continuous
 62
     1
370
    25
100
AcDbLine
 10
188.1178896819
 20
211.4698261197
 30
0.0
 11
93.1178896819
 21
211.4698261197
 31
0.0
  0
ARC
  5
ED
330
1F
100
AcDbEntity
  8
0
  6
Continuous
 62
     7
370
    25
100
AcDbCircle
 10
187.1178896819
 20
34.6851180248
 30
0.0
 40
1.0
100
AcDbArc
 50
0.0
 51
90.0
  0
ARC
  5
EE
330
1F
100
AcDbEntity
  8
0
  6
Continuous
 62
     7
370
    25
100
AcDbCircle
 10
94.1178896819
 20
34.6851180248
 30
0.0
 40
1.0
100
AcDbArc
 50
90.0
 51
180.0
  0
LINE
  5
EF
330
1F
100
AcDbEntity
  8
0
  6
Continuous
 62
     7
370
    25
100
AcDbLine
 10
93.1178896819
 20
34.6851180248
 30
0.0
 11
93.1178896819
 21
24.6851180248
 31
0.0
  0
LINE
  5
F0
330
1F
100
AcDbEntity
  8
0
  6
Continuous
 62
     7
370
    25
100
AcDbLine
 10
188.1178896819
 20
24.6851180248
 30
0.0
 11
188.1178896819
 21
34.6851180248
 31
0.0
  0
ARC
  5
F1
330
1F
100
AcDbEntity
  8
0
  6
Continuous
 62
     7
370
    25
100
AcDbCircle
 10
187.1178896819
 20
24.6851180248
 30
0.0
 40
1.0
100
AcDbArc
 50
270.0
 51
0.0
  0
ARC
  5
F2
330
1F
100
AcDbEntity
  8
0
  6
Continuous
 62
     7
370
    25
100
AcDbCircle
 10
94.1178896819
 20
24.6851180248
 30
0.0
 40
1.0
100
AcDbArc
 50
180.0
 51
270.0
  0
LINE
  5
F3
330
1F
100
AcDbEntity
  8
0
  6
Continuous
 62
     7
370
    25
100
AcDbLine
 10
94.1178896825
 20
35.6851180248
 30
0.0
 11
187.1178896819
 21
35.6851180248
 31
0.0
  0
LINE
  5
F4
330
1F
100
AcDbEntity
  8
0
  6
Continuous
 62
     7
370
    25
100
AcDbLine
 10
187.1178896819
 20
23.6851180248
 30
0.0
 11
94.1178896825
 21
23.6851180248
 31
0.0
  0
LINE
  5
F5
330
1F
100
AcDbEntity
  8
0
  6
Continuous
 62
     1
370
    25
100
AcDbLine
 10
188.1178896819
 20
34.6851180248
 30
0.0
 11
93.1178896819
 21
34.6851180248
 31
0.0
  0
LINE
  5
F6
330
1F
100
AcDbEntity
  8
0
  6
Continuous
 62
     1
370
    25
100
AcDbLine
 10
93.1178896819
 20
24.6851180248
 30
0.0
 11
188.1178896819
 21
24.6851180248
 31
0.0
  0
SPLINE
  5
F7
330
1F
100
AcDbEntity
  8
0
  6
Continuous
 62
     7
370
    25
100
AcDbSpline
210
0.0
220
0.0
230
1.0
 70
     8
 71
     3
 72
    80
 73
    76
 74
     0
 42
0.00000001
 43
0.00000001
 40
0.0
 40
0.0
 40
0.0
 40
0.0
 40
0.0024157745985196
 40
0.016075099950668
 40
0.0297468614440987
 40
0.0434386148347944
 40
0.0571562994940332
 40
0.0709039138962739
 40
0.0846834268608118
 40
0.0984949072467323
 40
0.1123368223956364
 40
0.1262064370600567
 40
0.1401002422414417
 40
0.1540143549637275
 40
0.167944849783064
 40
0.181888004157811
 40
0.1958404575371843
 40
0.2097992956629504
 40
0.2237620770463383
 40
0.2377268192955843
 40
0.2516917133647247
 40
0.2656554910958689
 40
0.2796173697165225
 40
0.2935768110097635
 40
0.3075334745363836
 40
0.3214871771879899
 40
0.3354378591937734
 40
0.3493855561755397
 40
0.363330376584777
 40
0.3772724837637362
 40
0.3912120818800647
 40
0.4051494050450153
 40
0.4190847090089253
 40
0.4330182649166975
 40
0.4469503546906223
 40
0.4608812676829867
 40
0.4748112983047755
 40
0.4887407443887993
 40
0.5026699060867628
 40
0.5165990851304392
 40
0.5305285124848946
 40
0.5444584626103285
 40
0.5583892392957113
 40
0.5723211460226261
 40
0.5862544850771811
 40
0.6001895562259254
 40
0.6141266547663519
 40
0.6280660687302085
 40
0.6420080749704575
 40
0.655952933803307
 40
0.6699008818051202
 40
0.6838521222805085
 40
0.697806812825618
 40
0.7117650493155787
 40
0.7257268455599445
 40
0.7396921078163466
 40
0.7536606033665006
 40
0.7676319224957172
 40
0.7816054335587566
 40
0.7955802314738203
 40
0.8095546670259653
 40
0.8235268998345171
 40
0.837494708105295
 40
0.8514553766566667
 40
0.8654056925899735
 40
0.8793419891963846
 40
0.8932602573581759
 40
0.907156341662185
 40
0.9210262304730198
 40
0.934866434016645
 40
0.9486744228932427
 40
0.9624490753579699
 40
0.9761910622319003
 40
0.9899030915276905
 40
1.0
 40
1.0
 40
1.0
 40
1.0
 10
266.2783019849081
 20
82.45390238385444
 30
0.0
 10
266.2158031779063
 20
82.48354791994726
 30
0.0
 10
265.7999222550885
 20
82.68081589191584
 30
0.0
 10
264.9934343129956
 20
82.97448253461744
 30
0.0
 10
263.8591226597853
 20
83.3297214566242
 30
0.0
 10
262.6868538681907
 20
83.60329517433193
 30
0.0
 10
261.4828847642383
 20
83.80316859651742
 30
0.0
 10
260.2479276550373
 20
83.92658013720109
 30
0.0
 10
258.984338444651
 20
83.97375779585207
 30
0.0
 10
257.6941984769728
 20
83.94427296053178
 30
0.0
 10
256.3798253431444
 20
83.83805711856684
 30
0.0
 10
255.0436160090521
 20
83.65515755712802
 30
0.0
 10
253.6880596934309
 20
83.39582112716421
 30
0.0
 10
252.3157010740529
 20
83.06047825438606
 30
0.0
 10
250.9291178496671
 20
82.64974377594822
 30
0.0
 10
249.530898955467
 20
82.16440606070333
 30
0.0
 10
248.1236288612275
 20
81.60541517972047
 30
0.0
 10
246.7098767224377
 20
80.97386994530382
 30
0.0
 10
245.2921899154253
 20
80.27100583841731
 30
0.0
 10
243.8730991485614
 20
79.49818901263542
 30
0.0
 10
242.4551114820424
 20
78.65690636377292
 30
0.0
 10
241.0407043174685
 20
77.74875540778672
 30
0.0
 10
239.6323179675804
 20
76.77543191390566
 30
0.0
 10
238.2323624426608
 20
75.73872781364976
 30
0.0
 10
236.8432236979318
 20
74.64053180914108
 30
0.0
 10
235.4672629209654
 20
73.48282661532869
 30
0.0
 10
234.106815239962
 20
72.2676863994616
 30
0.0
 10
232.7641878985843
 20
70.99727424902949
 30
0.0
 10
231.4416579694219
 20
69.67383954879628
 30
0.0
 10
230.1414696886976
 20
68.29971518782199
 30
0.0
 10
228.8658314950274
 20
66.87731454824244
 30
0.0
 10
227.6169128496409
 20
65.40912825040938
 30
0.0
 10
226.3968409073834
 20
63.89772064529624
 30
0.0
 10
225.2076970989274
 20
62.34572605635462
 30
0.0
 10
224.0515136759817
 20
60.75584478058896
 30
0.0
 10
222.9302702634541
 20
59.13083886353957
 30
0.0
 10
221.8458904557569
 20
57.4735276660331
 30
0.0
 10
220.8002384886614
 20
55.78678324237783
 30
0.0
 10
219.7951160136491
 20
54.07352555141669
 30
0.0
 10
218.8322606518816
 20
52.33672050611209
 30
0.0
 10
217.9133416820085
 20
50.57937330991943
 30
0.0
 10
217.0399564233648
 20
48.8045220503711
 30
0.0
 10
216.2136262796008
 20
47.01522926011257
 30
0.0
 10
215.4357954716968
 20
45.21457832421903
 30
0.0
 10
214.7078294578453
 20
43.40566938459222
 30
0.0
 10
214.0310129265906
 20
41.59161402853199
 30
0.0
 10
213.4065480092702
 20
39.77553001557642
 30
0.0
 10
212.835552716552
 20
37.96053608038573
 30
0.0
 10
212.3190595995758
 20
36.14974685400588
 30
0.0
 10
211.8580146304729
 20
34.34626795144838
 30
0.0
 10
211.4532762891182
 20
32.55319127974676
 30
0.0
 10
211.1056148321044
 20
30.77359062716343
 30
0.0
 10
210.8157117052326
 20
29.01051760038928
 30
0.0
 10
210.5841590412689
 20
27.26699798125293
 30
0.0
 10
210.411459159338
 20
25.54602857585939
 30
0.0
 10
210.2980239503002
 20
23.85057462433619
 30
0.0
 10
210.2441739936102
 20
22.18356782470725
 30
0.0
 10
210.2501372066736
 20
20.5479049932049
 30
0.0
 10
210.3160467806753
 20
18.94644733227645
 30
0.0
 10
210.4419368724942
 20
17.38203563561534
 30
0.0
 10
210.6277358455644
 20
15.85748097085833
 30
0.0
 10
210.8732589666565
 20
14.37556076792281
 30
0.0
 10
211.1782032840863
 20
12.93900331801232
 30
0.0
 10
211.542137872806
 20
11.55049243720571
 30
0.0
 10
211.9644926991357
 20
10.21266362307145
 30
0.0
 10
212.4445471754397
 20
8.928092680805157
 30
0.0
 10
212.9814215214042
 20
7.699281756196101
 30
0.0
 10
213.5740659074019
 20
6.528631450691873
 30
0.0
 10
214.221276430935
 20
5.418441062960667
 30
0.0
 10
214.9216413213409
 20
4.370785425534776
 30
0.0
 10
215.6737870129207
 20
3.387843358602559
 30
0.0
 10
216.4755547680464
 20
2.470556191000027
 30
0.0
 10
217.327197928386
 20
1.623527248176944
 30
0.0
 10
218.1417804298178
 20
0.9054129639497963
 30
0.0
 10
218.6924395557548
 20
0.5015983789570175
 30
0.0
 10
218.9259634049992
 20
0.3303484498686851
 30
0.0
  0
LINE
  5
F8
330
1F
100
AcDbEntity
  8
0
  6
Continuous
 62
     7
370
    25
100
AcDbLine
 10
274.948954933
 20
77.5673523192
 30
0.0
 11
267.8778871211
 21
81.6493928783
 31
0.0
  0
LINE
  5
F9
330
1F
100
AcDbEntity
  8
0
  6
Continuous
 62
     7
370
    25
100
AcDbLine
 10
220.3817473209
 20
-0.6252490478
 30
0.0
 11
227.4528151328
 21
-4.7072896069
 31
0.0
  0
SPLINE
  5
FA
330
1F
100
AcDbEntity
  8
0
  6
Continuous
 62
     7
370
    25
100
AcDbSpline
210
0.0
220
0.0
230
1.0
 70
     8
 71
     3
 72
    63
 73
    59
 74
     0
 42
0.00000001
 43
0.00000001
 40
0.0
 40
0.0
 40
0.0
 40
0.0
 40
0.0045475605216332
 40
0.0225378318490569
 40
0.0405452631212643
 40
0.0585796713851604
 40
0.0766487036776662
 40
0.0947574318706211
 40
0.1129082580604138
 40
0.1311011041604448
 40
0.1493338177677125
 40
0.1676027034609229
 40
0.1859030871460408
 40
0.2042298374181218
 40
0.2225777943855378
 40
0.2409420843329102
 40
0.2593183214386632
 40
0.2777027124683676
 40
0.2960920870335082
 40
0.314483876585322
 40
0.332875700688753
 40
0.3512659672894644
 40
0.3696536711305851
 40
0.3880381242973187
 40
0.4064188951876842
 40
0.4247957558671691
 40
0.4431686379024199
 40
0.4615375961049396
 40
0.4799027792924817
 40
0.4982644070669413
 40
0.5166227516244384
 40
0.5349781236962377
 40
0.5533308618304561
 40
0.571681324341783
 40
0.5900298833669724
 40
0.6083769205619262
 40
0.6267228240589712
 40
0.6450679863705944
 40
0.6634128029788452
 40
0.6817576713892881
 40
0.7001028862073745
 40
0.7184488186068574
 40
0.736795868682144
 40
0.7551444360516093
 40
0.773494918654624
 40
0.7918477109565651
 40
0.810203201310666
 40
0.8285617681806736
 40
0.84692377486456
 40
0.8652895622803747
 40
0.8836594392795354
 40
0.9020336698421555
 40
0.9204124563865853
 40
0.93879591830065
 40
0.9571840646916379
 40
0.9755767602862543
 40
0.99397368343892
 40
1.0
 40
1.0
 40
1.0
 40
1.0
 10
229.0497475701101
 20
-5.508670736596527
 30
0.0
 10
229.1392461712368
 20
-5.550732771852522
 30
0.0
 10
229.5828036375582
 20
-5.759193346114008
 30
0.0
 10
230.4184819886152
 20
-6.060844230835909
 30
0.0
 10
231.5557005978842
 20
-6.41001357385744
 30
0.0
 10
232.7303128637151
 20
-6.678286025349041
 30
0.0
 10
233.9366073726497
 20
-6.872603803915266
 30
0.0
 10
235.1737149839933
 20
-6.990486552179272
 30
0.0
 10
236.4393099918465
 20
-7.032096071809566
 30
0.0
 10
237.731290762079
 20
-6.99703371958902
 30
0.0
 10
239.0473339589729
 20
-6.885237526724944
 30
0.0
 10
240.3850348316056
 20
-6.696769328883863
 30
0.0
 10
241.7418992800976
 20
-6.431889229293095
 30
0.0
 10
243.1153794019344
 20
-6.091041310644668
 30
0.0
 10
244.5028960343153
 20
-5.674853388457558
 30
0.0
 10
245.9018600938743
 20
-5.184126021507724
 30
0.0
 10
247.3096879184959
 20
-4.619820527302504
 30
0.0
 10
248.7238117633945
 20
-3.983046048651066
 30
0.0
 10
250.1416859950523
 20
-3.275047571000909
 30
0.0
 10
251.5607808725097
 20
-2.497200588574056
 30
0.0
 10
252.9785915099287
 20
-1.651000282001033
 30
0.0
 10
254.3926426324257
 20
-0.7380519567707564
 30
0.0
 10
255.8004968885819
 20
0.2399419319752058
 30
0.0
 10
257.1997460059981
 20
1.281182315305412
 30
0.0
 10
258.5880057993124
 20
2.383773565402342
 30
0.0
 10
259.9629169255651
 20
3.545726232123688
 30
0.0
 10
261.322146216656
 20
4.764959596399033
 30
0.0
 10
262.6633885407045
 20
6.039304205422106
 30
0.0
 10
263.9843691189579
 20
7.366504505735168
 30
0.0
 10
265.2828462153572
 20
8.744221650770001
 30
0.0
 10
266.5566141161897
 20
10.17003652915919
 30
0.0
 10
267.8035063229513
 20
11.64145303782831
 30
0.0
 10
269.0213988897297
 20
13.15590160799372
 30
0.0
 10
270.2082138453305
 20
14.71074298121584
 30
0.0
 10
271.3619226489565
 20
16.30327222530743
 30
0.0
 10
272.4805496360131
 20
17.93072297512401
 30
0.0
 10
273.5621754173043
 20
19.59027188020188
 30
0.0
 10
274.6049402005917
 20
21.27904323946832
 30
0.0
 10
275.6070470078491
 20
22.9941138014852
 30
0.0
 10
276.5667629484549
 20
24.73251441695613
 30
0.0
 10
277.4824238817864
 20
26.49123731146287
 30
0.0
 10
278.3524378271136
 20
28.26724221332461
 30
0.0
 10
279.1752890305177
 20
30.05746511356613
 30
0.0
 10
279.9495389259837
 20
31.85882122924022
 30
0.0
 10
280.6738278639132
 20
33.66820940757562
 30
0.0
 10
281.3468771000161
 20
35.48251743453416
 30
0.0
 10
281.9674905752113
 20
37.29862730869789
 30
0.0
 10
282.5345564308881
 20
39.11342041280808
 30
0.0
 10
283.0470484503696
 20
40.92378265101117
 30
0.0
 10
283.5040267192922
 20
42.72660908988278
 30
0.0
 10
283.9046401805102
 20
44.51880959248576
 30
0.0
 10
284.2481211712984
 20
46.29730962058171
 30
0.0
 10
284.5338090817552
 20
48.05906765579667
 30
0.0
 10
284.7610646885379
 20
49.80102883219746
 30
0.0
 10
284.9295923539913
 20
51.52031463710559
 30
0.0
 10
285.0382396243997
 20
53.21352883951633
 30
0.0
 10
285.0779929141089
 20
54.50586176375348
 30
0.0
 10
285.0806858813908
 20
55.23227980836737
 30
0.0
 10
285.0813503580745
 20
55.41151995602313
 30
0.0
  0
SPLINE
  5
FB
330
1F
100
AcDbEntity
  8
0
  6
Continuous
 62
     7
370
    25
100
AcDbSpline
210
0.0
220
0.0
230
1.0
 70
     8
 71
     3
 72
    25
 73
    21
 74
     0
 42
0.00000001
 43
0.00000001
 40
0.0
 40
0.0
 40
0.0
 40
0.0
 40
0.0307514111904908
 40
0.089084230563885
 40
0.1474283453073876
 40
0.2057715434212307
 40
0.264106142759519
 40
0.3224230126042315
 40
0.3807109695018471
 40
0.438956747518525
 40
0.4971451642153041
 40
0.5552595626026453
 40
0.6132826023168657
 40
0.671197442034753
 40
0.7289892939175548
 40
0.786647242131267
 40
0.8441661168316354
 40
0.9015481311281927
 40
0.9588039553799835
 40
1.0
 40
1.0
 40
1.0
 40
1.0
 10
285.0813503580745
 20
55.41151995602313
 30
0.0
 10
285.0796765044607
 20
55.69854620889964
 30
0.0
 10
285.0748274924809
 20
56.53003692426054
 30
0.0
 10
285.0209609844574
 20
57.88019503535499
 30
0.0
 10
284.9000770316756
 20
59.44768613730392
 30
0.0
 10
284.7184579465377
 20
60.97514157866588
 30
0.0
 10
284.4773152761177
 20
62.460279195443
 30
0.0
 10
284.1766668148957
 20
63.90021989436477
 30
0.0
 10
283.8170078272183
 20
65.29231597110387
 30
0.0
 10
283.398878020454
 20
66.6339175613994
 30
0.0
 10
282.9229920087407
 20
67.92244690625398
 30
0.0
 10
282.3902162083149
 20
69.15539496004781
 30
0.0
 10
281.8015887158539
 20
70.33035365478175
 30
0.0
 10
281.1583009474153
 20
71.44501338119329
 30
0.0
 10
280.4617549946518
 20
72.49728938098268
 30
0.0
 10
279.7133096023874
 20
73.48498236735449
 30
0.0
 10
278.9151359221376
 20
74.40716174614131
 30
0.0
 10
278.0669028702411
 20
75.2591139142649
 30
0.0
 10
277.2604940770936
 20
75.97761986274362
 30
0.0
 10
276.7170394125581
 20
76.3805878639472
 30
0.0
 10
276.489637100487
 20
76.54920515834955
 30
0.0
  0
SPLINE
  5
FC
330
1F
100
AcDbEntity
  8
0
  6
Continuous
 62
     7
370
    25
100
AcDbSpline
210
0.0
220
0.0
230
1.0
 70
     8
 71
     3
 72
    16
 73
    12
 74
     0
 42
0.00000001
 43
0.00000001
 40
0.0
 40
0.0
 40
0.0
 40
0.0
 40
0.0175369088284046
 40
0.1771146922539319
 40
0.3155814015170581
 40
0.4471158248088994
 40
0.5868977112996465
 40
0.7221898557312998
 40
0.8553483064563336
 40
0.9802692522254647
 40
1.0
 40
1.0
 40
1.0
 40
1.0
 10
270.6018237188976
 20
59.84177787614733
 30
0.0
 10
270.6141216673983
 20
59.83612822834856
 30
0.0
 10
270.7383252762189
 20
59.77906939084104
 30
0.0
 10
270.924244836445
 20
59.61829276797588
 30
0.0
 10
271.1653714780501
 20
59.35271194615502
 30
0.0
 10
271.3669137091795
 20
59.02734748762299
 30
0.0
 10
271.5359039778984
 20
58.63652203998451
 30
0.0
 10
271.6646117629005
 20
58.17572376849713
 30
0.0
 10
271.7436160434467
 20
57.67334543608707
 30
0.0
 10
271.7666181942412
 20
57.28456296130042
 30
0.0
 10
271.7675189890725
 20
57.07317048824061
 30
0.0
 10
271.7676418590865
 20
57.04433617966669
 30
0.0
  0
SPLINE
  5
FD
330
1F
100
AcDbEntity
  8
0
  6
Continuous
 62
     7
370
    25
100
AcDbSpline
210
0.0
220
0.0
230
1.0
 70
     8
 71
     3
 72
    31
 73
    27
 74
     0
 42
0.00000001
 43
0.00000001
 40
0.0
 40
0.0
 40
0.0
 40
0.0
 40
0.0226703042629436
 40
0.0661722593383028
 40
0.1098231504602947
 40
0.1536327323513118
 40
0.1975942566071102
 40
0.2416843380838896
 40
0.2858714864214578
 40
0.3301205636158348
 40
0.3743949246490333
 40
0.4186525682236156
 40
0.4628482674659929
 40
0.506944564143018
 40
0.5509049857589671
 40
0.5946961911992039
 40
0.6382924327051394
 40
0.6816839776352022
 40
0.7248920626992923
 40
0.7679942562976776
 40
0.8111163659981987
 40
0.8545156018158577
 40
0.8986860284651174
 40
0.9444361838173099
 40
0.9928872180637138
 40
1.0
 40
1.0
 40
1.0
 40
1.0
 10
271.7676418590865
 20
57.04433617966669
 30
0.0
 10
271.7662223546885
 20
56.941946958523
 30
0.0
 10
271.7620789690478
 20
56.64308347542267
 30
0.0
 10
271.7151500148927
 20
56.11814949915518
 30
0.0
 10
271.6082055683131
 20
55.4659790592162
 30
0.0
 10
271.4467914516877
 20
54.79105626367988
 30
0.0
 10
271.2327587392732
 20
54.10272212643547
 30
0.0
 10
270.96774523606
 20
53.40956915853965
 30
0.0
 10
270.6545770783649
 20
52.72053430815377
 30
0.0
 10
270.2968182424196
 20
52.04440696780047
 30
0.0
 10
269.8988236647238
 20
51.38980290487513
 30
0.0
 10
269.4656654452272
 20
50.76502630413043
 30
0.0
 10
269.0030619238113
 20
50.17791025396283
 30
0.0
 10
268.517292798247
 20
49.63567123374551
 30
0.0
 10
268.0151186324294
 20
49.14477762919398
 30
0.0
 10
267.5037340966248
 20
48.71084301796222
 30
0.0
 10
266.9906712978704
 20
48.33846105541004
 30
0.0
 10
266.4836592697729
 20
48.03102403984546
 30
0.0
 10
265.9903924403508
 20
47.79051193216358
 30
0.0
 10
265.5183833723205
 20
47.61744617562983
 30
0.0
 10
265.0743385814966
 20
47.51051280622271
 30
0.0
 10
264.6636150205554
 20
47.46741499742748
 30
0.0
 10
264.2872848703253
 20
47.48267868050662
 30
0.0
 10
263.9468727515229
 20
47.56147329427283
 30
0.0
 10
263.7207167853413
 20
47.64162822982365
 30
0.0
 10
263.6145405682448
 20
47.71794250295663
 30
0.0
 10
263.6009488401938
 20
47.72771157248268
 30
0.0
  0
SPLINE
  5
FE
330
1F
100
AcDbEntity
  8
0
  6
Continuous
 62
     7
370
    25
100
AcDbSpline
210
0.0
220
0.0
230
1.0
 70
     8
 71
     3
 72
    16
 73
    12
 74
     0
 42
0.00000001
 43
0.00000001
 40
0.0
 40
0.0
 40
0.0
 40
0.0
 40
0.0175369088283649
 40
0.1771146922538878
 40
0.3155814015170232
 40
0.4471158248088669
 40
0.5868977112996142
 40
0.7221898557312592
 40
0.8553483064562921
 40
0.9802692522254207
 40
1.0
 40
1.0
 40
1.0
 40
1.0
 10
247.6208533303349
 20
20.03756967274515
 30
0.0
 10
247.6331512788355
 20
20.03192002494639
 30
0.0
 10
247.7573548876561
 20
19.97486118743888
 30
0.0
 10
247.9432744478823
 20
19.81408456457378
 30
0.0
 10
248.1844010894873
 20
19.5485037427529
 30
0.0
 10
248.3859433206167
 20
19.22313928422089
 30
0.0
 10
248.5549335893357
 20
18.83231383658244
 30
0.0
 10
248.6836413743378
 20
18.37151556509508
 30
0.0
 10
248.7626456548839
 20
17.86913723268503
 30
0.0
 10
248.7856478056785
 20
17.48035475789837
 30
0.0
 10
248.7865486005097
 20
17.26896228483848
 30
0.0
 10
248.7866714705237
 20
17.24012797626449
 30
0.0
  0
SPLINE
  5
FF
330
1F
100
AcDbEntity
  8
0
  6
Continuous
 62
     7
370
    25
100
AcDbSpline
210
0.0
220
0.0
230
1.0
 70
     8
 71
     3
 72
    31
 73
    27
 74
     0
 42
0.00000001
 43
0.00000001
 40
0.0
 40
0.0
 40
0.0
 40
0.0
 40
0.0226703042629435
 40
0.0661722593382983
 40
0.1098231504602916
 40
0.1536327323513113
 40
0.1975942566071078
 40
0.2416843380838898
 40
0.285871486421459
 40
0.3301205636158346
 40
0.3743949246490326
 40
0.4186525682236089
 40
0.4628482674659903
 40
0.5069445641430161
 40
0.5509049857589642
 40
0.5946961911991993
 40
0.6382924327051336
 40
0.6816839776351976
 40
0.7248920626992832
 40
0.7679942562976715
 40
0.8111163659981893
 40
0.8545156018158523
 40
0.8986860284651101
 40
0.9444361838173012
 40
0.9928872180637035
 40
1.0
 40
1.0
 40
1.0
 40
1.0
 10
248.7866714705237
 20
17.2401279762645
 30
0.0
 10
248.7852519661257
 20
17.1377387551208
 30
0.0
 10
248.781108580485
 20
16.83887527202049
 30
0.0
 10
248.7341796263299
 20
16.31394129575303
 30
0.0
 10
248.6272351797504
 20
15.66177085581405
 30
0.0
 10
248.465821063125
 20
14.98684806027772
 30
0.0
 10
248.2517883507104
 20
14.29851392303329
 30
0.0
 10
247.9867748474973
 20
13.60536095513746
 30
0.0
 10
247.6736066898021
 20
12.91632610475156
 30
0.0
 10
247.3158478538568
 20
12.24019876439829
 30
0.0
 10
246.9178532761611
 20
11.58559470147297
 30
0.0
 10
246.4846950566645
 20
10.96081810072829
 30
0.0
 10
246.0220915352486
 20
10.37370205056069
 30
0.0
 10
245.5363224096842
 20
9.831463030343365
 30
0.0
 10
245.0341482438667
 20
9.340569425791825
 30
0.0
 10
244.5227637080621
 20
8.906634814560078
 30
0.0
 10
244.0097009093078
 20
8.534252852007919
 30
0.0
 10
243.5026888812102
 20
8.226815836443292
 30
0.0
 10
243.0094220517882
 20
7.986303728761436
 30
0.0
 10
242.5374129837578
 20
7.813237972227684
 30
0.0
 10
242.093368192934
 20
7.706304602820524
 30
0.0
 10
241.6826446319927
 20
7.663206794025278
 30
0.0
 10
241.3063144817626
 20
7.678470477104432
 30
0.0
 10
240.9659023629603
 20
7.757265090870606
 30
0.0
 10
240.7397463967786
 20
7.837420026421457
 30
0.0
 10
240.633570179682
 20
7.913734299554422
 30
0.0
 10
240.6199784516311
 20
7.923503369080487
 30
0.0
  0
SPLINE
  5
100
330
1F
100
AcDbEntity
  8
0
  6
Continuous
 62
     7
370
    25
100
AcDbSpline
210
0.0
220
0.0
230
1.0
 70
     8
 71
     3
 72
    18
 73
    14
 74
     0
 42
0.00000001
 43
0.00000001
 40
0.0
 40
0.0
 40
0.0
 40
0.0
 40
0.0182425836332159
 40
0.1222144024951047
 40
0.2260702100940185
 40
0.3283576156329686
 40
0.4286180935976287
 40
0.5270580904479214
 40
0.6241438179478247
 40
0.720339330509914
 40
0.8160129156355262
 40
0.911426974182076
 40
1.0
 40
1.0
 40
1.0
 40
1.0
 10
251.0810942268616
 20
52.65736827635523
 30
0.0
 10
251.1113788857963
 20
52.64253330047627
 30
0.0
 10
251.3142679924538
 20
52.5431478324127
 30
0.0
 10
251.6497833217621
 20
52.29071057941634
 30
0.0
 10
252.0838025400854
 20
51.89559454095131
 30
0.0
 10
252.468380292411
 20
51.42583293120227
 30
0.0
 10
252.8050798620058
 20
50.8947009544494
 30
0.0
 10
253.0914724340431
 20
50.30436165663826
 30
0.0
 10
253.327163053062
 20
49.6585255147953
 30
0.0
 10
253.5116881197675
 20
48.96011738278949
 30
0.0
 10
253.642757883324
 20
48.21130826930118
 30
0.0
 10
253.7222093176854
 20
47.43761648532038
 30
0.0
 10
253.7318012816858
 20
46.89591343900953
 30
0.0
 10
253.7364189388327
 20
46.635132753929
 30
0.0
  0
SPLINE
  5
101
330
1F
100
AcDbEntity
  8
0
  6
Continuous
 62
     7
370
    25
100
AcDbSpline
210
0.0
220
0.0
230
1.0
 70
     8
 71
     3
 72
    39
 73
    35
 74
     0
 42
0.00000001
 43
0.00000001
 40
0.0
 40
0.0
 40
0.0
 40
0.0
 40
0.016579606659059
 40
0.0482761220329385
 40
0.0800116021441302
 40
0.1117862925338331
 40
0.1436029310159246
 40
0.1754601125960076
 40
0.2073538770137845
 40
0.2392787436619405
 40
0.2712283641032743
 40
0.3031959174508623
 40
0.3351743369020633
 40
0.3671564292848161
 40
0.3991336595124866
 40
0.4310975781918421
 40
0.4630408789245812
 40
0.4949563169757021
 40
0.5268368451145985
 40
0.5586758681211019
 40
0.5904676819493462
 40
0.6222081918736317
 40
0.6538960410947803
 40
0.6855343266137942
 40
0.7171331256642245
 40
0.7487130831443213
 40
0.7802984139625846
 40
0.8119372096156836
 40
0.843705289675321
 40
0.8757100819762914
 40
0.9080909394930756
 40
0.941003959066408
 40
0.9745733851218485
 40
1.0
 40
1.0
 40
1.0
 40
1.0
 10
253.7364189388327
 20
46.635132753929
 30
0.0
 10
253.7348980997902
 20
46.48553487166924
 30
0.0
 10
253.7304697552148
 20
46.04993915650218
 30
0.0
 10
253.6808588048687
 20
45.30092953815935
 30
0.0
 10
253.5688015531167
 20
44.38260718791676
 30
0.0
 10
253.4002380759763
 20
43.43934124463091
 30
0.0
 10
253.1766676113545
 20
42.47764881495544
 30
0.0
 10
252.8987939722657
 20
41.50327618133915
 30
0.0
 10
252.5680546911111
 20
40.52231111022946
 30
0.0
 10
252.1861969552603
 20
39.54083087208393
 30
0.0
 10
251.7553696604497
 20
38.56492950387086
 30
0.0
 10
251.2780742854865
 20
37.60065066524462
 30
0.0
 10
250.7571525772976
 20
36.65395129428546
 30
0.0
 10
250.1957714979804
 20
35.73067303329847
 30
0.0
 10
249.5974054159861
 20
34.83650178700012
 30
0.0
 10
248.965809567009
 20
33.97691726362557
 30
0.0
 10
248.3049888502702
 20
33.15714460212403
 30
0.0
 10
247.6191745843099
 20
32.3821201945851
 30
0.0
 10
246.9128087099589
 20
31.65646374956432
 30
0.0
 10
246.1905183398802
 20
30.98443772202268
 30
0.0
 10
245.4570861900951
 20
30.36990432828708
 30
0.0
 10
244.7174145310473
 20
29.81628005722166
 30
0.0
 10
243.9764792362716
 20
29.32648828114467
 30
0.0
 10
243.2392693802352
 20
28.90291229866041
 30
0.0
 10
242.510706075936
 20
28.54735297391265
 30
0.0
 10
241.7956245484588
 20
28.26103864762971
 30
0.0
 10
241.0985996357842
 20
28.04456902982741
 30
0.0
 10
240.4237640564902
 20
27.89795858538795
 30
0.0
 10
239.7744701140801
 20
27.82067304947702
 30
0.0
 10
239.1532923559194
 20
27.81223024663229
 30
0.0
 10
238.5612447726992
 20
27.87145719122659
 30
0.0
 10
238.0005472605719
 20
28.0015217597737
 30
0.0
 10
237.5121337731646
 20
28.17638572209679
 30
0.0
 10
237.228765298597
 20
28.33976512573075
 30
0.0
 10
237.1066367462837
 20
28.41017976897604
 30
0.0
  0
SPLINE
  5
102
330
1F
100
AcDbEntity
  8
0
  6
Continuous
 62
     7
370
    25
100
AcDbSpline
210
0.0
220
0.0
230
1.0
 70
     8
 71
     3
 72
    34
 73
    30
 74
     0
 42
0.00000001
 43
0.00000001
 40
0.0
 40
0.0
 40
0.0
 40
0.0
 40
0.0327631880125278
 40
0.0709312727704993
 40
0.1090770253165593
 40
0.1472283619632951
 40
0.1854117269587804
 40
0.2236405696253069
 40
0.2619196719559997
 40
0.3002482734307036
 40
0.3386221732969834
 40
0.3770351065724823
 40
0.415479618193919
 40
0.4539475980549116
 40
0.4924305920503684
 40
0.5309199697622715
 40
0.5694061321826824
 40
0.6078782608649688
 40
0.6463275588797683
 40
0.6847452802462318
 40
0.7231228695215812
 40
0.7614522299831246
 40
0.7997261934236604
 40
0.8379392965658725
 40
0.8760890112500026
 40
0.914177628268556
 40
0.9522150517153051
 40
0.9902228021988916
 40
1.0
 40
1.0
 40
1.0
 40
1.0
 10
241.7760259631906
 20
28.26565019212549
 30
0.0
 10
241.7389455257313
 20
28.47921300807881
 30
0.0
 10
241.6586675435378
 20
28.94156979540452
 30
0.0
 10
241.5996471899279
 20
29.71119902861586
 30
0.0
 10
241.587243739957
 20
30.55545785925099
 30
0.0
 10
241.6317299991931
 20
31.43730151251448
 30
0.0
 10
241.7316901812514
 20
32.34979315303205
 30
0.0
 10
241.8875623630703
 20
33.28797039234338
 30
0.0
 10
242.0987739898911
 20
34.24600791282995
 30
0.0
 10
242.3644948066883
 20
35.21804456438841
 30
0.0
 10
242.6834381518723
 20
36.19805199977862
 30
0.0
 10
243.0539289545283
 20
37.17994914495655
 30
0.0
 10
243.4739063509291
 20
38.15764067216887
 30
0.0
 10
243.9409469751457
 20
39.12506799231953
 30
0.0
 10
244.4522840530539
 20
40.07625101011915
 30
0.0
 10
245.0048238709125
 20
41.00532118845524
 30
0.0
 10
245.5951584934789
 20
41.90655140719376
 30
0.0
 10
246.2195941906806
 20
42.77441206680157
 30
0.0
 10
246.8741784998229
 20
43.60361504607677
 30
0.0
 10
247.5547310899319
 20
44.38915856487409
 30
0.0
 10
248.2568547316944
 20
45.12634530459981
 30
0.0
 10
248.9759644265609
 20
45.81083833951028
 30
0.0
 10
249.7072996108785
 20
46.43864450257575
 30
0.0
 10
250.4460190350188
 20
47.00637922208659
 30
0.0
 10
251.1870186792989
 20
47.51049488773189
 30
0.0
 10
251.9258277700772
 20
47.95037640367773
 30
0.0
 10
252.6555589913197
 20
48.31703395214424
 30
0.0
 10
253.1996310707357
 20
48.55660057633138
 30
0.0
 10
253.4924334185617
 20
48.65123151477686
 30
0.0
 10
253.5523432138862
 20
48.67059379173852
 30
0.0
  0
SPLINE
  5
103
330
1F
100
AcDbEntity
  8
0
  6
Continuous
 62
     7
370
    25
100
AcDbSpline
210
0.0
220
0.0
230
1.0
 70
     8
 71
     3
 72
    16
 73
    12
 74
     0
 42
0.00000001
 43
0.00000001
 40
0.0
 40
0.0
 40
0.0
 40
0.0
 40
0.0175369088284196
 40
0.1771146922539482
 40
0.3155814015170803
 40
0.4471158248089229
 40
0.5868977112996665
 40
0.7221898557313143
 40
0.8553483064563442
 40
0.9802692522254733
 40
1.0
 40
1.0
 40
1.0
 40
1.0
 10
247.6208533303381
 20
73.11272244531702
 30
0.0
 10
247.6331512788387
 20
73.10707279751823
 30
0.0
 10
247.7573548876594
 20
73.05001396001067
 30
0.0
 10
247.9432744478856
 20
72.88923733714554
 30
0.0
 10
248.1844010894906
 20
72.62365651532465
 30
0.0
 10
248.38594332062
 20
72.29829205679262
 30
0.0
 10
248.554933589339
 20
71.90746660915411
 30
0.0
 10
248.683641374341
 20
71.44666833766678
 30
0.0
 10
248.7626456548871
 20
70.94429000525668
 30
0.0
 10
248.7856478056817
 20
70.5555075304701
 30
0.0
 10
248.7865486005129
 20
70.34411505741028
 30
0.0
 10
248.7866714705269
 20
70.31528074883636
 30
0.0
  0
SPLINE
  5
104
330
1F
100
AcDbEntity
  8
0
  6
Continuous
 62
     7
370
    25
100
AcDbSpline
210
0.0
220
0.0
230
1.0
 70
     8
 71
     3
 72
    31
 73
    27
 74
     0
 42
0.00000001
 43
0.00000001
 40
0.0
 40
0.0
 40
0.0
 40
0.0
 40
0.0226703042629434
 40
0.0661722593382982
 40
0.1098231504602914
 40
0.1536327323513114
 40
0.1975942566071072
 40
0.2416843380838902
 40
0.2858714864214586
 40
0.3301205636158339
 40
0.3743949246490315
 40
0.4186525682236107
 40
0.4628482674659879
 40
0.5069445641430136
 40
0.5509049857589635
 40
0.5946961911991985
 40
0.6382924327051327
 40
0.6816839776351967
 40
0.7248920626992874
 40
0.7679942562976734
 40
0.8111163659981943
 40
0.8545156018158547
 40
0.8986860284651137
 40
0.9444361838173069
 40
0.9928872180637122
 40
1.0
 40
1.0
 40
1.0
 40
1.0
 10
248.7866714705269
 20
70.31528074883636
 30
0.0
 10
248.785251966129
 20
70.21289152769266
 30
0.0
 10
248.7811085804882
 20
69.91402804459237
 30
0.0
 10
248.7341796263331
 20
69.38909406832491
 30
0.0
 10
248.6272351797536
 20
68.73692362838592
 30
0.0
 10
248.4658210631282
 20
68.06200083284959
 30
0.0
 10
248.2517883507137
 20
67.37366669560517
 30
0.0
 10
247.9867748475005
 20
66.68051372770934
 30
0.0
 10
247.6736066898054
 20
65.99147887732346
 30
0.0
 10
247.3158478538601
 20
65.31535153697016
 30
0.0
 10
246.9178532761643
 20
64.66074747404487
 30
0.0
 10
246.4846950566676
 20
64.03597087330017
 30
0.0
 10
246.0220915352518
 20
63.44885482313256
 30
0.0
 10
245.5363224096874
 20
62.90661580291528
 30
0.0
 10
245.0341482438699
 20
62.41572219836371
 30
0.0
 10
244.5227637080653
 20
61.98178758713195
 30
0.0
 10
244.009700909311
 20
61.60940562457979
 30
0.0
 10
243.5026888812134
 20
61.30196860901517
 30
0.0
 10
243.0094220517913
 20
61.0614565013333
 30
0.0
 10
242.537412983761
 20
60.88839074479953
 30
0.0
 10
242.0933681929372
 20
60.78145737539241
 30
0.0
 10
241.6826446319959
 20
60.73835956659716
 30
0.0
 10
241.3063144817658
 20
60.75362324967632
 30
0.0
 10
240.9659023629634
 20
60.83241786344252
 30
0.0
 10
240.7397463967818
 20
60.91257279899334
 30
0.0
 10
240.6335701796852
 20
60.98888707212632
 30
0.0
 10
240.6199784516343
 20
60.99865614165237
 30
0.0
  0
SPLINE
  5
105
330
1F
100
AcDbEntity
  8
0
  6
Continuous
 62
     7
370
    25
100
AcDbSpline
210
0.0
220
0.0
230
1.0
 70
     8
 71
     3
 72
    16
 73
    12
 74
     0
 42
0.00000001
 43
0.00000001
 40
0.0
 40
0.0
 40
0.0
 40
0.0
 40
0.0175369088283791
 40
0.1771146922539135
 40
0.3155814015170439
 40
0.4471158248088893
 40
0.58689771129964
 40
0.7221898557312861
 40
0.8553483064563172
 40
0.9802692522254488
 40
1.0
 40
1.0
 40
1.0
 40
1.0
 10
224.6398829417753
 20
33.30851424191483
 30
0.0
 10
224.6521808902759
 20
33.30286459411606
 30
0.0
 10
224.7763844990966
 20
33.24580575660856
 30
0.0
 10
224.9623040593227
 20
33.0850291337434
 30
0.0
 10
225.2034307009278
 20
32.81944831192254
 30
0.0
 10
225.4049729320572
 20
32.49408385339051
 30
0.0
 10
225.5739632007761
 20
32.10325840575203
 30
0.0
 10
225.7026709857782
 20
31.64246013426467
 30
0.0
 10
225.7816752663244
 20
31.1400818018546
 30
0.0
 10
225.8046774171189
 20
30.75129932706798
 30
0.0
 10
225.8055782119501
 20
30.53990685400812
 30
0.0
 10
225.8057010819642
 20
30.51107254543417
 30
0.0
  0
SPLINE
  5
106
330
1F
100
AcDbEntity
  8
0
  6
Continuous
 62
     7
370
    25
100
AcDbSpline
210
0.0
220
0.0
230
1.0
 70
     8
 71
     3
 72
    31
 73
    27
 74
     0
 42
0.00000001
 43
0.00000001
 40
0.0
 40
0.0
 40
0.0
 40
0.0
 40
0.0226703042629436
 40
0.066172259338296
 40
0.1098231504602923
 40
0.1536327323513103
 40
0.1975942566071072
 40
0.2416843380838898
 40
0.2858714864214564
 40
0.3301205636158302
 40
0.3743949246490301
 40
0.4186525682236105
 40
0.4628482674659868
 40
0.5069445641430137
 40
0.550904985758962
 40
0.5946961911991983
 40
0.6382924327051331
 40
0.6816839776351966
 40
0.7248920626992863
 40
0.7679942562976735
 40
0.8111163659981953
 40
0.8545156018158551
 40
0.8986860284651135
 40
0.9444361838173059
 40
0.9928872180637112
 40
1.0
 40
1.0
 40
1.0
 40
1.0
 10
225.8057010819642
 20
30.51107254543417
 30
0.0
 10
225.8042815775662
 20
30.40868332429048
 30
0.0
 10
225.8001381919254
 20
30.10981984119018
 30
0.0
 10
225.7532092377704
 20
29.58488586492272
 30
0.0
 10
225.6462647911908
 20
28.93271542498373
 30
0.0
 10
225.4848506745655
 20
28.2577926294474
 30
0.0
 10
225.2708179621509
 20
27.56945849220297
 30
0.0
 10
225.0058044589377
 20
26.87630552430715
 30
0.0
 10
224.6926363012426
 20
26.18727067392127
 30
0.0
 10
224.3348774652974
 20
25.51114333356799
 30
0.0
 10
223.9368828876015
 20
24.85653927064268
 30
0.0
 10
223.5037246681049
 20
24.23176266989797
 30
0.0
 10
223.0411211466891
 20
23.64464661973037
 30
0.0
 10
222.5553520211247
 20
23.10240759951305
 30
0.0
 10
222.0531778553071
 20
22.61151399496152
 30
0.0
 10
221.5417933195025
 20
22.17757938372975
 30
0.0
 10
221.0287305207482
 20
21.80519742117757
 30
0.0
 10
220.5217184926507
 20
21.49776040561297
 30
0.0
 10
220.0284516632286
 20
21.25724829793109
 30
0.0
 10
219.5564425951982
 20
21.08418254139733
 30
0.0
 10
219.1123978043744
 20
20.9772491719902
 30
0.0
 10
218.7016742434331
 20
20.93415136319495
 30
0.0
 10
218.325344093203
 20
20.94941504627411
 30
0.0
 10
217.9849319744006
 20
21.0282096600403
 30
0.0
 10
217.758776008219
 20
21.10836459559113
 30
0.0
 10
217.6525997911225
 20
21.18467886872412
 30
0.0
 10
217.6390080630715
 20
21.19444793825016
 30
0.0
  0
LWPOLYLINE
  5
107
330
1F
100
AcDbEntity
  8
0
  6
Continuous
 62
     7
370
    25
100
AcDbPolyline
 90
      142
 70
   128
 43
0.0
 10
276.303175765
 20
59.901764571
 10
276.2705352049
 20
61.5743275617
 10
276.1726783291
 20
63.2058838448
 10
276.0097994237
 20
64.7931941163
 10
275.7822218694
 20
66.3331069186
 10
275.4903975006
 20
67.8225648973
 10
275.1349057074
 20
69.2586108716
 10
274.716452286
 20
70.6383937051
 10
274.2358680368
 20
71.9591739667
 10
273.6941071153
 20
73.2183293693
 10
273.0922451379
 20
74.4133599767
 10
272.4314770456
 20
75.5418931659
 10
271.7131147324
 20
76.601688339
 10
270.9385844402
 20
77.5906413707
 10
270.1094239272
 20
78.5067887862
 10
269.2272794147
 20
79.3483116597
 10
268.2939023192
 20
80.1135392254
 10
267.3111457743
 20
80.8009521948
 10
266.2809609523
 20
81.4091857731
 10
265.2053931898
 20
81.9370323688
 10
264.086577927
 20
82.3834439914
 10
262.926736468
 20
82.7475343319
 10
261.7281715707
 20
83.0285805226
 10
260.4932628748
 20
83.2260245724
 10
259.2244621772
 20
83.3394744743
 10
257.9242885641
 20
83.3687049842
 10
256.59532341
 20
83.3136580674
 10
255.2402052522
 20
83.1744430146
 10
253.8616245523
 20
82.9513362243
 10
252.4623183548
 20
82.6447806545
 10
251.0450648524
 20
82.2553849429
 10
249.6126778709
 20
81.7839221986
 10
248.1680012821
 20
81.2313284671
 10
246.7139033575
 20
80.5987008724
 10
245.253271074
 20
79.8872954378
 10
243.7890043819
 20
79.098524593
 10
242.324010447
 20
78.2339543695
 10
240.8611978793
 20
77.2953012915
 10
239.4034709576
 20
76.2844289677
 10
237.9537238639
 20
75.2033443916
 10
236.5148349368
 20
74.0541939566
 10
235.0896609571
 20
72.8392591944
 10
233.6810314758
 20
71.5609522456
 10
232.2917431964
 20
70.2218110703
 10
230.9245544221
 20
68.8244944093
 10
229.5821795797
 20
67.3717765055
 10
228.2672838301
 20
65.866541596
 10
226.9824777773
 20
64.3117781851
 10
225.7303122846
 20
62.7105731118
 10
224.5132734107
 20
61.0661054206
 10
223.3337774738
 20
59.3816400498
 10
222.1941662537
 20
57.6605213494
 10
221.0967023431
 20
55.9061664414
 10
220.043564655
 20
54.1220584351
 10
219.0368440967
 20
52.3117395116
 10
218.0785394189
 20
50.4788038918
 10
217.1705532466
 20
48.6268906996
 10
216.3146883024
 20
46.7596767371
 10
215.5126438269
 20
44.880869185
 10
214.7660122052
 20
42.9941982416
 10
214.0762758053
 20
41.1034097176
 10
213.4448040349
 20
39.2122575984
 10
212.8728506228
 20
37.3244965917
 10
212.3615511295
 20
35.443874672
 10
211.9119206928
 20
33.5741256402
 10
211.5248520125
 20
31.7189617099
 10
211.2011135774
 20
29.8820661374
 10
210.9413481403
 20
28.0670859087
 10
210.7460714415
 20
26.2776244991
 10
210.6156711847
 20
24.5172347187
 10
210.5504062675
 20
22.7894116583
 10
210.5504062675
 20
21.0975857508
 10
210.6156711847
 20
19.4451159598
 10
210.7460714415
 20
17.8352831112
 10
210.9413481403
 20
16.271283379
 10
211.2011135774
 20
14.75622194
 10
211.5248520125
 20
13.2931068085
 10
211.9119206928
 20
11.884842864
 10
212.3615511295
 20
10.5342260843
 10
212.8728506228
 20
9.243937994
 10
213.4448040349
 20
8.0165403406
 10
214.0762758053
 20
6.8544700086
 10
214.7660122052
 20
5.7600341811
 10
215.5126438269
 20
4.7354057591
 10
216.3146883024
 20
3.7826190474
 10
217.1705532466
 20
2.903565716
 10
218.0785394189
 20
2.0999910437
 10
219.0368440967
 20
1.3734904538
 10
220.043564655
 20
0.725506346
 10
221.0967023431
 20
0.1573252326
 10
222.1941662537
 20
-0.3299248153
 10
223.3337774738
 20
-0.7352764079
 10
224.5132734107
 20
-1.057924757
 10
225.7303122846
 20
-1.2972292742
 10
226.9824777773
 20
-1.4527148426
 10
228.2672838301
 20
-1.52407276
 10
229.5821795797
 20
-1.5111613519
 10
230.9245544221
 20
-1.4140062525
 10
232.2917431964
 20
-1.2328003545
 10
233.6810314758
 20
-0.9679034252
 10
235.0896609571
 20
-0.6198413932
 10
236.5148349368
 20
-0.1893053032
 10
237.9537238639
 20
0.322850055
 10
239.4034709576
 20
0.9156078446
 10
240.8611978793
 20
1.5877911997
 10
242.324010447
 20
2.3380655626
 10
243.7890043819
 20
3.1649413329
 10
245.253271074
 20
4.0667768253
 10
246.7139033575
 20
5.0417815289
 10
248.1680012821
 20
6.0880196622
 10
249.6126778709
 20
7.2034140161
 10
251.0450648524
 20
8.3857500785
 10
252.4623183548
 20
9.6326804305
 10
253.8616245523
 20
10.9417294073
 10
255.2402052522
 20
12.3102980134
 10
256.59532341
 20
13.7356690825
 10
257.9242885641
 20
15.2150126722
 10
259.2244621772
 20
16.7453916828
 10
260.4932628748
 20
18.3237676884
 10
261.7281715707
 20
19.9470069696
 10
262.926736468
 20
21.611886735
 10
264.086577927
 20
23.3151015199
 10
265.2053931898
 20
25.0532697491
 10
266.2809609523
 20
26.8229404505
 10
267.3111457743
 20
28.6206001066
 10
268.2939023192
 20
30.4426796307
 10
269.2272794147
 20
32.2855614524
 10
270.1094239272
 20
34.1455867005
 10
270.9385844402
 20
36.0190624671
 10
271.7131147324
 20
37.9022691394
 10
272.4314770456
 20
39.7914677849
 10
273.0922451379
 20
41.6829075746
 10
273.6941071153
 20
43.5728332299
 10
274.2358680368
 20
45.4574924782
 10
274.716452286
 20
47.3331435031
 10
275.1349057074
 20
49.1960623732
 10
275.4903975006
 20
51.0425504354
 10
275.7822218694
 20
52.8689416586
 10
276.0097994237
 20
54.6716099121
 10
276.1726783291
 20
56.4469761649
 10
276.2705352049
 20
58.1915155918
 10
276.303175765
 20
59.901764571
  0
ARC
  5
108
330
1F
100
AcDbEntity
  8
0
  6
Continuous
 62
     7
370
    25
100
AcDbCircle
 10
228.3203206819
 20
13.1261039818
 30
0.0
 40
15.8782384562923
100
AcDbArc
 50
233.9686906323
 51
246.469302058
  0
ARC
  5
109
330
1F
100
AcDbEntity
  8
0
  6
Continuous
 62
     7
370
    25
100
AcDbCircle
 10
259.9394223249
 20
67.8979986026
 30
0.0
 40
15.878221892673
100
AcDbArc
 50
53.5805288862
 51
66.2069310236
  0
LWPOLYLINE
  5
10A
330
1F
100
AcDbEntity
  8
0
  6
Continuous
 62
     7
370
    25
100
AcDbPolyline
 90
        3
 70
   128
 43
0.0
 10
276.4320707259
 20
76.5968702599
 10
275.725827288
 20
77.0885267806
 10
274.948954933
 20
77.5673523192
  0
ARC
  5
10B
330
1F
100
AcDbEntity
  8
0
  6
Continuous
 62
     7
370
    25
100
AcDbCircle
 10
235.3982295359
 20
9.0591905094
 30
0.0
 40
15.89482887075499
100
AcDbArc
 50
240.0083244381
 51
246.1928361278
  0
LWPOLYLINE
  5
10C
330
1F
100
AcDbEntity
  8
0
  6
Continuous
 62
     7
370
    25
100
AcDbPolyline
 90
       59
 70
   128
 43
0.0
 10
249.0795646893
 20
17.6483320322
 10
249.0464039674
 20
16.9229200262
 10
248.9473105806
 20
16.1677262581
 10
248.7834463083
 20
15.3916046842
 10
248.5567323093
 20
14.6036546206
 10
248.2698265981
 20
13.8131140612
 10
247.9260928816
 20
13.0292513713
 10
247.5295611234
 20
12.2612566242
 10
247.084880296
 20
11.5181338561
 10
246.5972638753
 20
10.8085955022
 10
246.0724287181
 20
10.1409602508
 10
245.5165280368
 20
9.5230555148
 10
244.9360792585
 20
8.9621256623
 10
244.3378876145
 20
8.464747083
 10
243.7289663549
 20
8.0367510859
 10
243.1164545248
 20
7.6831555328
 10
242.5075332652
 20
7.4081060083
 10
241.9093416212
 20
7.2148272165
 10
241.3288928429
 20
7.1055851746
 10
240.7729921616
 20
7.0816606457
 10
240.2481570044
 20
7.1433341229
 10
239.7605405837
 20
7.2898825411
 10
239.3158597562
 20
7.5195877541
 10
238.9193279981
 20
7.8297566784
 10
238.5755942816
 20
8.2167528668
 10
238.2886885703
 20
8.6760391429
 10
238.0619745714
 20
9.2022307951
 10
237.8981102991
 20
9.7891587072
 10
237.7990169123
 20
10.4299416862
 10
237.7658561904
 20
11.1170671376
 10
237.7990169123
 20
11.8424791436
 10
237.8981102991
 20
12.5976729117
 10
238.0619745714
 20
13.3737944855
 10
238.2886885703
 20
14.1617445492
 10
238.5755942816
 20
14.9522851086
 10
238.9193279981
 20
15.7361477985
 10
239.3158597562
 20
16.5041425456
 10
239.7605405837
 20
17.2472653136
 10
240.2481570044
 20
17.9568036676
 10
240.7729921616
 20
18.624438919
 10
241.3288928429
 20
19.242343655
 10
241.9093416212
 20
19.8032735075
 10
242.5075332652
 20
20.3006520868
 10
243.1164545248
 20
20.7286480839
 10
243.7289663549
 20
21.082243637
 10
244.3378876145
 20
21.3572931615
 10
244.9360792585
 20
21.5505719532
 10
245.5165280368
 20
21.6598139951
 10
246.0724287181
 20
21.6837385241
 10
246.5972638753
 20
21.6220650469
 10
247.084880296
 20
21.4755166287
 10
247.5295611234
 20
21.2458114156
 10
247.9260928816
 20
20.9356424914
 10
248.2698265981
 20
20.548646303
 10
248.5567323093
 20
20.0893600268
 10
248.7834463083
 20
19.5631683747
 10
248.9473105806
 20
18.9762404626
 10
249.0464039674
 20
18.3354574835
 10
249.0795646893
 20
17.6483320322
  0
LWPOLYLINE
  5
10D
330
1F
100
AcDbEntity
  8
0
  6
Continuous
 62
     7
370
    25
100
AcDbPolyline
 90
       59
 70
   128
 43
0.0
 10
249.0795646893
 20
70.7234848047
 10
249.0464039674
 20
69.9980727988
 10
248.9473105806
 20
69.2428790306
 10
248.7834463083
 20
68.4667574568
 10
248.5567323093
 20
67.6788073932
 10
248.2698265981
 20
66.8882668338
 10
247.9260928816
 20
66.1044041438
 10
247.5295611234
 20
65.3364093967
 10
247.084880296
 20
64.5932866287
 10
246.5972638753
 20
63.8837482748
 10
246.0724287181
 20
63.2161130233
 10
245.5165280368
 20
62.5982082873
 10
244.9360792585
 20
62.0372784349
 10
244.3378876145
 20
61.5398998555
 10
243.7289663549
 20
61.1119038585
 10
243.1164545248
 20
60.7583083054
 10
242.5075332652
 20
60.4832587809
 10
241.9093416212
 20
60.2899799891
 10
241.3288928429
 20
60.1807379472
 10
240.7729921616
 20
60.1568134183
 10
240.2481570044
 20
60.2184868955
 10
239.7605405837
 20
60.3650353137
 10
239.3158597563
 20
60.5947405267
 10
238.9193279981
 20
60.904909451
 10
238.5755942816
 20
61.2919056394
 10
238.2886885703
 20
61.7511919155
 10
238.0619745714
 20
62.2773835676
 10
237.8981102991
 20
62.8643114798
 10
237.7990169123
 20
63.5050944588
 10
237.7658561904
 20
64.1922199102
 10
237.7990169123
 20
64.9176319162
 10
237.8981102991
 20
65.6728256843
 10
238.0619745714
 20
66.4489472581
 10
238.2886885703
 20
67.2368973217
 10
238.5755942816
 20
68.0274378812
 10
238.9193279981
 20
68.8113005711
 10
239.3158597563
 20
69.5792953182
 10
239.7605405837
 20
70.3224180862
 10
240.2481570044
 20
71.0319564402
 10
240.7729921616
 20
71.6995916916
 10
241.3288928429
 20
72.3174964276
 10
241.9093416212
 20
72.8784262801
 10
242.5075332652
 20
73.3758048594
 10
243.1164545248
 20
73.8038008564
 10
243.7289663549
 20
74.1573964095
 10
244.3378876145
 20
74.432445934
 10
244.9360792585
 20
74.6257247258
 10
245.5165280368
 20
74.7349667677
 10
246.0724287181
 20
74.7588912967
 10
246.5972638753
 20
74.6972178195
 10
247.084880296
 20
74.5506694012
 10
247.5295611234
 20
74.3209641882
 10
247.9260928816
 20
74.0107952639
 10
248.2698265981
 20
73.6237990755
 10
248.5567323093
 20
73.1645127994
 10
248.7834463083
 20
72.6383211473
 10
248.9473105806
 20
72.0513932351
 10
249.0464039674
 20
71.4106102561
 10
249.0795646893
 20
70.7234848047
  0
LWPOLYLINE
  5
10E
330
1F
100
AcDbEntity
  8
0
  6
Continuous
 62
     7
370
    25
100
AcDbPolyline
 90
       81
 70
   128
 43
0.0
 10
254.0293121576
 20
47.0433368098
 10
253.9966155443
 20
46.0634856509
 10
253.8987272899
 20
45.0519248939
 10
253.7362509079
 20
44.0148911475
 10
253.5101881193
 20
42.9587780694
 10
253.2219326764
 20
41.890096948
 10
252.8732617699
 20
40.8154365577
 10
252.4663250717
 20
39.7414225374
 10
252.0036314821
 20
38.6746765404
 10
251.4880336608
 20
37.6217754107
 10
250.9227104398
 20
36.5892106338
 10
250.3111472249
 20
35.5833483149
 10
249.6571145065
 20
34.6103899298
 10
248.9646446139
 20
33.6763340903
 10
248.2380068542
 20
32.7869395614
 10
247.4816811909
 20
31.9476897561
 10
246.7003306232
 20
31.1637589284
 10
245.8987724371
 20
30.4399802727
 10
245.0819485055
 20
29.7808161251
 10
244.2548948194
 20
29.1903304516
 10
243.4227104398
 20
28.6721637929
 10
242.5905260603
 20
28.2295108186
 10
241.7634723742
 20
27.8651006317
 10
240.9466484426
 20
27.581179942
 10
240.1450902565
 20
27.379499215
 10
239.3637396888
 20
27.2613018794
 10
238.6074140254
 20
27.2273166612
 10
237.8807762658
 20
27.2777530906
 10
237.1883063732
 20
27.4123002101
 10
236.5342736548
 20
27.630128492
 10
235.9227104398
 20
27.9298949525
 10
235.3573872189
 20
28.3097514318
 10
234.8417893976
 20
28.7673559883
 10
234.3790958079
 20
29.2998873377
 10
233.9721591098
 20
29.9040622472
 10
233.6234882033
 20
30.5761557776
 10
233.3352327604
 20
31.3120242488
 10
233.1091699718
 20
32.1071307869
 10
232.9466935898
 20
32.9565732957
 10
232.8488053354
 20
33.8551146797
 10
232.816108722
 20
34.7972151325
 10
232.8488053354
 20
35.7770662915
 10
232.9466935898
 20
36.7886270484
 10
233.1091699718
 20
37.8256607949
 10
233.3352327604
 20
38.881773873
 10
233.6234882033
 20
39.9504549944
 10
233.9721591098
 20
41.0251153846
 10
234.3790958079
 20
42.099129405
 10
234.8417893976
 20
43.1658754019
 10
235.3573872189
 20
44.2187765316
 10
235.9227104398
 20
45.2513413085
 10
236.5342736548
 20
46.2572036274
 10
237.1883063732
 20
47.2301620126
 10
237.8807762658
 20
48.164217852
 10
238.6074140254
 20
49.0536123809
 10
239.3637396888
 20
49.8928621863
 10
240.1450902565
 20
50.6767930139
 10
240.9466484426
 20
51.4005716696
 10
241.7634723742
 20
52.0597358173
 10
242.5905260603
 20
52.6502214907
 10
243.4227104398
 20
53.1683881495
 10
244.2548948194
 20
53.6110411237
 10
245.0819485055
 20
53.9754513107
 10
245.8987724371
 20
54.2593720004
 10
246.7003306232
 20
54.4610527274
 10
247.4816811909
 20
54.5792500629
 10
248.2380068542
 20
54.6132352811
 10
248.9646446139
 20
54.5627988518
 10
249.6571145065
 20
54.4282517323
 10
250.3111472249
 20
54.2104234504
 10
250.9227104398
 20
53.9106569898
 10
251.4880336608
 20
53.5308005105
 10
252.0036314821
 20
53.0731959541
 10
252.4663250717
 20
52.5406646046
 10
252.8732617699
 20
51.9364896951
 10
253.2219326764
 20
51.2643961647
 10
253.5101881193
 20
50.5285276936
 10
253.7362509079
 20
49.7334211555
 10
253.8987272899
 20
48.8839786466
 10
253.9966155443
 20
47.9854372626
 10
254.0293121576
 20
47.0433368098
  0
LWPOLYLINE
  5
10F
330
1F
100
AcDbEntity
  8
0
  6
Continuous
 62
     7
370
    25
100
AcDbPolyline
 90
       59
 70
   128
 43
0.0
 10
272.0605350779
 20
57.4525402356
 10
272.0273743559
 20
56.7271282296
 10
271.9282809691
 20
55.9719344615
 10
271.7644166969
 20
55.1958128877
 10
271.5377026979
 20
54.407862824
 10
271.2507969866
 20
53.6173222646
 10
270.9070632701
 20
52.8334595747
 10
270.510531512
 20
52.0654648276
 10
270.0658506845
 20
51.3223420595
 10
269.5782342639
 20
50.6128037056
 10
269.0533991067
 20
49.9451684542
 10
268.4974984253
 20
49.3272637182
 10
267.9170496471
 20
48.7663338657
 10
267.3188580031
 20
48.2689552864
 10
266.7099367435
 20
47.8409592893
 10
266.0974249133
 20
47.4873637362
 10
265.4885036537
 20
47.2123142117
 10
264.8903120097
 20
47.0190354199
 10
264.3098632315
 20
46.9097933781
 10
263.7539625501
 20
46.8858688491
 10
263.229127393
 20
46.9475423263
 10
262.7415109723
 20
47.0940907445
 10
262.2968301448
 20
47.3237959576
 10
261.9002983867
 20
47.6339648818
 10
261.5565646702
 20
48.0209610702
 10
261.2696589589
 20
48.4802473463
 10
261.04294496
 20
49.0064389985
 10
260.8790806877
 20
49.5933669106
 10
260.7799873009
 20
50.2341498896
 10
260.7468265789
 20
50.921275341
 10
260.7799873009
 20
51.646687347
 10
260.8790806877
 20
52.4018811151
 10
261.04294496
 20
53.1780026889
 10
261.2696589589
 20
53.9659527526
 10
261.5565646702
 20
54.756493312
 10
261.9002983867
 20
55.5403560019
 10
262.2968301448
 20
56.308350749
 10
262.7415109723
 20
57.051473517
 10
263.229127393
 20
57.761011871
 10
263.7539625501
 20
58.4286471224
 10
264.3098632315
 20
59.0465518584
 10
264.8903120097
 20
59.6074817109
 10
265.4885036537
 20
60.1048602902
 10
266.0974249133
 20
60.5328562873
 10
266.7099367435
 20
60.8864518404
 10
267.3188580031
 20
61.1615013649
 10
267.9170496471
 20
61.3547801566
 10
268.4974984253
 20
61.4640221985
 10
269.0533991067
 20
61.4879467275
 10
269.5782342639
 20
61.4262732503
 10
270.0658506845
 20
61.2797248321
 10
270.510531512
 20
61.050019619
 10
270.9070632701
 20
60.7398506948
 10
271.2507969866
 20
60.3528545064
 10
271.5377026979
 20
59.8935682302
 10
271.7644166969
 20
59.3673765781
 10
271.9282809691
 20
58.780448666
 10
272.0273743559
 20
58.1396656869
 10
272.0605350779
 20
57.4525402356
  0
LWPOLYLINE
  5
110
330
1F
100
AcDbEntity
  8
0
  6
Continuous
 62
     7
370
    25
100
AcDbPolyline
 90
       59
 70
   128
 43
0.0
 10
226.0985943008
 20
30.9192766013
 10
226.0654335788
 20
30.1938645953
 10
225.966340192
 20
29.4386708272
 10
225.8024759197
 20
28.6625492534
 10
225.5757619208
 20
27.8745991898
 10
225.2888562095
 20
27.0840586304
 10
224.945122493
 20
26.3001959404
 10
224.5485907349
 20
25.5322011933
 10
224.1039099074
 20
24.7890784253
 10
223.6162934867
 20
24.0795400714
 10
223.0914583296
 20
23.4119048199
 10
222.5355576482
 20
22.7940000839
 10
221.95510887
 20
22.2330702315
 10
221.356917226
 20
21.7356916521
 10
220.7479959664
 20
21.3076956551
 10
220.1354841362
 20
20.954100102
 10
219.5265628766
 20
20.6790505775
 10
218.9283712326
 20
20.4857717857
 10
218.3479224544
 20
20.3765297438
 10
217.792021773
 20
20.3526052149
 10
217.2671866158
 20
20.4142786921
 10
216.7795701952
 20
20.5608271103
 10
216.3348893677
 20
20.7905323233
 10
215.9383576096
 20
21.1007012476
 10
215.5946238931
 20
21.487697436
 10
215.3077181818
 20
21.9469837121
 10
215.0810041828
 20
22.4731753642
 10
214.9171399106
 20
23.0601032764
 10
214.8180465238
 20
23.7008862554
 10
214.7848858018
 20
24.3880117068
 10
214.8180465238
 20
25.1134237128
 10
214.9171399106
 20
25.8686174809
 10
215.0810041828
 20
26.6447390547
 10
215.3077181818
 20
27.4326891183
 10
215.5946238931
 20
28.2232296777
 10
215.9383576096
 20
29.0070923677
 10
216.3348893677
 20
29.7750871148
 10
216.7795701952
 20
30.5182098828
 10
217.2671866158
 20
31.2277482368
 10
217.792021773
 20
31.8953834882
 10
218.3479224544
 20
32.5132882242
 10
218.9283712326
 20
33.0742180767
 10
219.5265628766
 20
33.571596656
 10
220.1354841362
 20
33.999592653
 10
220.7479959664
 20
34.3531882061
 10
221.356917226
 20
34.6282377306
 10
221.95510887
 20
34.8215165224
 10
222.5355576482
 20
34.9307585643
 10
223.0914583296
 20
34.9546830933
 10
223.6162934867
 20
34.8930096161
 10
224.1039099074
 20
34.7464611978
 10
224.5485907349
 20
34.5167559848
 10
224.945122493
 20
34.2065870605
 10
225.2888562095
 20
33.8195908721
 10
225.5757619208
 20
33.360304596
 10
225.8024759197
 20
32.8341129439
 10
225.966340192
 20
32.2471850317
 10
226.0654335788
 20
31.6064020527
 10
226.0985943008
 20
30.9192766013
  0
LINE
  5
111
330
1F
100
AcDbEntity
  8
0
  6
Continuous
 62
     7
370
    25
100
AcDbLine
 10
251.1292483495
 20
52.6367559886
 30
0.0
 11
251.0765646441
 21
52.6667152864
 31
0.0
  0
LINE
  5
112
330
1F
100
AcDbEntity
  8
0
  6
Continuous
 62
     7
370
    25
100
AcDbLine
 10
237.0980731438
 20
28.406214714
 30
0.0
 11
237.1303860926
 21
28.3873878419
 31
0.0
  0
LWPOLYLINE
  5
113
330
1F
100
AcDbEntity
  8
0
  6
Continuous
 62
     1
370
    25
100
AcDbPolyline
 90
       53
 70
   128
 43
0.0
 10
277.7173893274
 20
59.901764571
 10
277.6845147026
 20
58.1671656438
 10
277.5859551817
 20
56.3980060416
 10
277.4219036996
 20
54.5977489772
 10
277.1926813949
 20
52.7699185386
 10
276.8987369809
 20
50.9180927895
 10
276.5406458677
 20
49.045896766
 10
276.1191090353
 20
47.1569953795
 10
275.6349516621
 20
45.2550862433
 10
275.0891215086
 20
43.3438924339
 10
274.4826870632
 20
41.4271552027
 10
273.8168354497
 20
39.5086266531
 10
273.0928701039
 20
37.5920623947
 10
272.312208222
 20
35.6812141921
 10
271.4763779862
 20
33.7798226203
 10
270.5870155736
 20
31.8916097426
 10
269.6458619527
 20
30.0202718245
 10
268.6547594761
 20
28.1694720978
 10
267.6156482733
 20
26.3428335898
 10
266.5305624533
 20
24.5439320312
 10
265.4016261226
 20
22.7762888563
 10
264.231049227
 20
21.0433643096
 10
263.0211232258
 20
19.3485506723
 10
261.774216606
 20
17.6951656216
 10
260.4927702458
 20
16.0864457366
 10
259.1792926367
 20
14.5255401618
 10
257.8363549727
 20
13.0155044432
 10
256.4665861174
 20
11.5592945467
 10
255.0726674576
 20
10.1597610715
 10
253.6573276547
 20
8.8196436701
 10
252.2233373026
 20
7.5415656854
 10
250.7735035049
 20
6.3280290148
 10
249.3106643793
 20
5.1814092135
 10
247.8376835022
 20
4.1039508436
 10
246.3574443026
 20
3.0977630804
 10
244.8728444184
 20
2.1648155838
 10
243.3867900236
 20
1.3069346422
 10
241.9021901395
 20
0.5257995978
 10
240.4219509399
 20
-0.1770604407
 10
238.9489700627
 20
-0.8002695918
 10
237.4861309372
 20
-1.3426078945
 10
236.0362971395
 20
-1.8030136958
 10
234.6023067874
 20
-2.18058573
 10
233.1869669844
 20
-2.474584882
 10
231.7930483247
 20
-2.6844356347
 10
230.4232794694
 20
-2.8097271953
 10
229.0803418054
 20
-2.8502142998
 10
227.7668641962
 20
-2.8058176927
 10
226.485417836
 20
-2.6766242825
 10
225.2385112162
 20
-2.4628869714
 10
224.0285852151
 20
-2.1650241601
 10
222.8580083195
 20
-1.7836189291
 10
221.9810871355
 20
-1.4318002122
  0
LWPOLYLINE
  5
114
330
1F
100
AcDbEntity
  8
0
  6
Continuous
 62
     1
370
    25
100
AcDbPolyline
 90
       18
 70
   128
 43
0.0
 10
269.3662017253
 20
80.675078105
 10
269.6458619527
 20
80.4640701753
 10
270.5870155736
 20
79.6793650982
 10
271.4763779862
 20
78.8179882053
 10
272.312208222
 20
77.8816256825
 10
273.0928701039
 20
76.8721105033
 10
273.8168354497
 20
75.7914188411
 10
274.4826870632
 20
74.6416662006
 10
275.0891215086
 20
73.4251032766
 10
275.6349516621
 20
72.144111548
 10
276.1191090353
 20
70.8011986164
 10
276.5406458677
 20
69.398993297
 10
276.8987369809
 20
67.9402404724
 10
277.1926813949
 20
66.4277957198
 10
277.4219036996
 20
64.8646197209
 10
277.5859551817
 20
63.253772466
 10
277.6845147026
 20
61.5984072643
 10
277.7173893274
 20
59.901764571
  0
LWPOLYLINE
  5
115
330
1F
100
AcDbEntity
  8
0
  6
Continuous
 62
     1
370
    25
100
AcDbPolyline
 90
       18
 70
   128
 43
0.0
 10
284.7884571393
 20
55.8197240119
 10
284.7555825144
 20
57.5163667052
 10
284.6570229935
 20
59.1717319069
 10
284.4929715115
 20
60.7825791617
 10
284.2637492068
 20
62.3457551607
 10
283.9698047928
 20
63.8581999133
 10
283.6117136795
 20
65.3169527379
 10
283.1901768472
 20
66.7191580573
 10
282.7060194739
 20
68.0620709889
 10
282.1601893205
 20
69.3430627175
 10
281.5537548751
 20
70.5596256415
 10
280.8879032616
 20
71.709378282
 10
280.1639379158
 20
72.7900699442
 10
279.3832760339
 20
73.7995851234
 10
278.5474457981
 20
74.7359476462
 10
277.6580833855
 20
75.5973245391
 10
276.7169297646
 20
76.3820296162
 10
276.4320707259
 20
76.5968702599
  0
LWPOLYLINE
  5
116
330
1F
100
AcDbEntity
  8
0
  6
Continuous
 62
     1
370
    25
100
AcDbPolyline
 90
       53
 70
   128
 43
0.0
 10
228.9821277858
 20
-5.4831347229
 10
229.9290761313
 20
-5.8656594882
 10
231.0996530269
 20
-6.2470647192
 10
232.3095790281
 20
-6.5449275305
 10
233.5564856479
 20
-6.7586648416
 10
234.8379320081
 20
-6.8878582519
 10
236.1514096173
 20
-6.9322548589
 10
237.4943472812
 20
-6.8917677545
 10
238.8641161366
 20
-6.7664761938
 10
240.2580347963
 20
-6.5566254412
 10
241.6733745993
 20
-6.2626262892
 10
243.1073649513
 20
-5.885054255
 10
244.557198749
 20
-5.4246484536
 10
246.0200378746
 20
-4.8823101509
 10
247.4930187518
 20
-4.2591009998
 10
248.9732579513
 20
-3.5562409613
 10
250.4578578355
 20
-2.775105917
 10
251.9439122303
 20
-1.9172249754
 10
253.4285121145
 20
-0.9842774787
 10
254.908751314
 20
0.0219102845
 10
256.3817321912
 20
1.0993686544
 10
257.8445713168
 20
2.2459884557
 10
259.2944051145
 20
3.4595251262
 10
260.7283954665
 20
4.737603111
 10
262.1437352695
 20
6.0777205124
 10
263.5376539292
 20
7.4772539876
 10
264.9074227846
 20
8.9334638841
 10
266.2503604485
 20
10.4434996026
 10
267.5638380577
 20
12.0044051774
 10
268.8452844179
 20
13.6131250625
 10
270.0921910377
 20
15.2665101132
 10
271.3021170389
 20
16.9613237505
 10
272.4726939345
 20
18.6942482971
 10
273.6016302652
 20
20.4618914721
 10
274.6867160852
 20
22.2607930306
 10
275.725827288
 20
24.0874315386
 10
276.7169297646
 20
25.9382312654
 10
277.6580833855
 20
27.8095691835
 10
278.5474457981
 20
29.6977820612
 10
279.3832760339
 20
31.599173633
 10
280.1639379158
 20
33.5100218356
 10
280.8879032616
 20
35.426586094
 10
281.5537548751
 20
37.3451146436
 10
282.1601893205
 20
39.2618518747
 10
282.7060194739
 20
41.1730456842
 10
283.1901768472
 20
43.0749548204
 10
283.6117136795
 20
44.9638562069
 10
283.9698047928
 20
46.8360522304
 10
284.2637492068
 20
48.6878779795
 10
284.4929715115
 20
50.5157084181
 10
284.6570229935
 20
52.3159654824
 10
284.7555825144
 20
54.0851250847
 10
284.7884571393
 20
55.8197240119
  0
LWPOLYLINE
  5
117
330
1F
100
AcDbEntity
  8
0
  6
Continuous
 62
     1
370
    25
100
AcDbPolyline
 90
       29
 70
   128
 43
0.0
 10
270.6012412422
 20
59.8463643471
 10
270.5075104193
 20
59.8971019186
 10
270.0665718371
 20
60.0698059078
 10
269.5856613437
 20
60.1574335323
 10
269.0712824288
 20
60.1587997789
 10
268.5303911846
 20
60.0738861714
 10
267.9703022374
 20
59.9038410207
 10
267.3985898293
 20
59.6509638958
 10
266.8229853899
 20
59.3186745259
 10
266.2512729818
 20
58.9114665548
 10
265.6911840346
 20
58.4348467716
 10
265.1502927904
 20
57.8952606414
 10
264.6359138754
 20
57.3000051409
 10
264.1550033821
 20
56.6571300796
 10
263.7140647999
 20
55.9753292398
 10
263.3190610667
 20
55.2638228083
 10
262.9753339303
 20
54.532232689
 10
262.6875317106
 20
53.7904523833
 10
262.4595464389
 20
53.0485131972
 10
262.2944612249
 20
52.3164485854
 10
262.1945085629
 20
51.604158466
 10
262.1610401413
 20
50.921275341
 10
262.1945085629
 20
50.2770340331
 10
262.2944612249
 20
49.6801468008
 10
262.4595464389
 20
49.13868552
 10
262.6875317106
 20
48.6599725256
 10
262.9753339303
 20
48.2504815897
 10
263.3190610667
 20
47.9157503748
 10
263.5938827955
 20
47.726382782
  0
LWPOLYLINE
  5
118
330
1F
100
AcDbEntity
  8
0
  6
Continuous
 62
     1
370
    25
100
AcDbPolyline
 90
       29
 70
   128
 43
0.0
 10
247.6202708537
 20
20.0421561437
 10
247.5265400307
 20
20.0928937152
 10
247.0856014485
 20
20.2655977044
 10
246.6046909552
 20
20.3532253289
 10
246.0903120402
 20
20.3545915755
 10
245.549420796
 20
20.269677968
 10
244.9893318488
 20
20.0996328173
 10
244.4176194407
 20
19.8467556924
 10
243.8420150013
 20
19.5144663225
 10
243.2703025932
 20
19.1072583514
 10
242.710213646
 20
18.6306385682
 10
242.1693224018
 20
18.091052438
 10
241.6549434869
 20
17.4957969375
 10
241.1740329936
 20
16.8529218762
 10
240.7330944113
 20
16.1711210364
 10
240.3380906781
 20
15.4596146049
 10
239.9943635417
 20
14.7280244856
 10
239.706561322
 20
13.9862441799
 10
239.4785760503
 20
13.2443049938
 10
239.3134908363
 20
12.512240382
 10
239.2135381744
 20
11.7999502626
 10
239.1800697527
 20
11.1170671376
 10
239.2135381744
 20
10.4728258297
 10
239.3134908363
 20
9.8759385974
 10
239.4785760503
 20
9.3344773166
 10
239.706561322
 20
8.8557643222
 10
239.9943635417
 20
8.4462733863
 10
240.3380906781
 20
8.1115421714
 10
240.6129124069
 20
7.9221745786
  0
LWPOLYLINE
  5
119
330
1F
100
AcDbEntity
  8
0
  6
Continuous
 62
     1
370
    25
100
AcDbPolyline
 90
       41
 70
   128
 43
0.0
 10
251.0765646441
 20
52.6667152864
 10
250.9123741592
 20
52.7544272552
 10
250.3020513576
 20
53.0127892267
 10
249.6506533561
 20
53.187960987
 10
248.962515101
 20
53.2787767968
 10
248.2422160388
 20
53.284632292
 10
247.4945496411
 20
53.2054885053
 10
246.7244915042
 20
53.0418721254
 10
245.937166238
 20
52.7948719923
 10
245.1378133623
 20
52.4661318513
 10
244.3317524387
 20
52.0578394137
 10
243.5243476694
 20
51.5727117983
 10
242.7209722001
 20
51.0139774493
 10
241.926972362
 20
50.3853546517
 10
241.147632093
 20
49.6910267865
 10
240.388137774
 20
48.935614491
 10
239.6535437144
 20
48.1241449095
 10
238.9487385164
 20
47.2620182381
 10
238.2784125424
 20
46.3549717876
 10
237.6470267012
 20
45.4090418025
 10
237.0587827612
 20
44.4305232907
 10
236.5175953889
 20
43.4259281314
 10
236.027066097
 20
42.4019417399
 10
235.590459277
 20
41.3653785764
 10
235.2106804752
 20
40.3231367979
 10
234.8902570569
 20
39.2821523514
 10
234.631321387
 20
38.2493528168
 10
234.4355966398
 20
37.2316113043
 10
234.3043853311
 20
36.2357007161
 10
234.2385606506
 20
35.2682486726
 10
234.2385606506
 20
34.3356934076
 10
234.3043853311
 20
33.4442409225
 10
234.4355966398
 20
32.5998236866
 10
234.631321387
 20
31.8080611572
 10
234.8902570569
 20
31.0742223834
 10
235.2106804752
 20
30.403190941
 10
235.590459277
 20
29.7994324337
 10
236.027066097
 20
29.2669647747
 10
236.5175953889
 20
28.8093314484
 10
237.0587827612
 20
28.4295779291
 10
237.0980731438
 20
28.406214714
  0
LWPOLYLINE
  5
11A
330
1F
100
AcDbEntity
  8
0
  6
Continuous
 62
     1
370
    25
100
AcDbPolyline
 90
       27
 70
   128
 43
0.0
 10
241.5765718161
 20
28.197424499
 10
241.5066644517
 20
28.5177831275
 10
241.375453143
 20
29.3622003634
 10
241.3096284625
 20
30.2536528484
 10
241.3096284625
 20
31.1862081134
 10
241.375453143
 20
32.1536601569
 10
241.5066644517
 20
33.1495707452
 10
241.7023891989
 20
34.1673122576
 10
241.9613248687
 20
35.2001117923
 10
242.2817482871
 20
36.2410962388
 10
242.6615270889
 20
37.2833380173
 10
243.0981339089
 20
38.3199011808
 10
243.5886632008
 20
39.3438875723
 10
244.1298505731
 20
40.3484827315
 10
244.718094513
 20
41.3270012434
 10
245.3494803543
 20
42.2729312285
 10
246.0198063283
 20
43.179977679
 10
246.7246115263
 20
44.0421043504
 10
247.4592055859
 20
44.8535739319
 10
248.2186999049
 20
45.6089862274
 10
248.9980401739
 20
46.3033140926
 10
249.792040012
 20
46.9319368902
 10
250.5954154813
 20
47.4906712392
 10
251.4028202505
 20
47.9757988546
 10
252.2088811742
 20
48.3840912922
 10
253.0082340499
 20
48.7128314332
 10
253.5294073954
 20
48.8850951004
  0
LWPOLYLINE
  5
11B
330
1F
100
AcDbEntity
  8
0
  6
Continuous
 62
     1
370
    25
100
AcDbPolyline
 90
       29
 70
   128
 43
0.0
 10
247.6202708537
 20
73.1173089163
 10
247.5265400307
 20
73.1680464878
 10
247.0856014485
 20
73.3407504769
 10
246.6046909552
 20
73.4283781015
 10
246.0903120402
 20
73.4297443481
 10
245.549420796
 20
73.3448307406
 10
244.9893318488
 20
73.1747855899
 10
244.4176194407
 20
72.921908465
 10
243.8420150013
 20
72.5896190951
 10
243.2703025933
 20
72.1824111239
 10
242.710213646
 20
71.7057913408
 10
242.1693224018
 20
71.1662052106
 10
241.6549434869
 20
70.5709497101
 10
241.1740329936
 20
69.9280746488
 10
240.7330944113
 20
69.246273809
 10
240.3380906781
 20
68.5347673775
 10
239.9943635417
 20
67.8031772582
 10
239.706561322
 20
67.0613969524
 10
239.4785760503
 20
66.3194577663
 10
239.3134908363
 20
65.5873931546
 10
239.2135381744
 20
64.8751030352
 10
239.1800697527
 20
64.1922199102
 10
239.2135381744
 20
63.5479786022
 10
239.3134908363
 20
62.95109137
 10
239.4785760503
 20
62.4096300892
 10
239.706561322
 20
61.9309170948
 10
239.9943635417
 20
61.5214261589
 10
240.3380906781
 20
61.1866949439
 10
240.6129124069
 20
60.9973273512
  0
LWPOLYLINE
  5
11C
330
1F
100
AcDbEntity
  8
0
  6
Continuous
 62
     1
370
    25
100
AcDbPolyline
 90
       29
 70
   128
 43
0.0
 10
224.6393004651
 20
33.3131007129
 10
224.5455696422
 20
33.3638382844
 10
224.1046310599
 20
33.5365422735
 10
223.6237205666
 20
33.6241698981
 10
223.1093416517
 20
33.6255361447
 10
222.5684504075
 20
33.5406225372
 10
222.0083614603
 20
33.3705773865
 10
221.4366490522
 20
33.1177002616
 10
220.8610446128
 20
32.7854108917
 10
220.2893322047
 20
32.3782029205
 10
219.7292432575
 20
31.9015831374
 10
219.1883520133
 20
31.3619970072
 10
218.6739730983
 20
30.7667415067
 10
218.193062605
 20
30.1238664454
 10
217.7521240228
 20
29.4420656056
 10
217.3571202895
 20
28.7305591741
 10
217.0133931531
 20
27.9989690548
 10
216.7255909334
 20
27.257188749
 10
216.4976056618
 20
26.5152495629
 10
216.3325204478
 20
25.7831849512
 10
216.2325677858
 20
25.0708948318
 10
216.1990993642
 20
24.3880117068
 10
216.2325677858
 20
23.7437703988
 10
216.3325204478
 20
23.1468831666
 10
216.4976056618
 20
22.6054218858
 10
216.7255909334
 20
22.1267088914
 10
217.0133931531
 20
21.7172179555
 10
217.3571202895
 20
21.3824867405
 10
217.6319420184
 20
21.1931191478
  0
ENDSEC
  0
SECTION
  2
OBJECTS
  0
DICTIONARY
  5
C
330
0
100
AcDbDictionary
281
     1
  3
ACAD_GROUP
350
D
  3
ACAD_LAYOUT
350
1A
  3
ACAD_MLINESTYLE
350
17
  3
ACAD_PLOTSETTINGS
350
19
  3
ACAD_PLOTSTYLENAME
350
E
  3
ACAD_SCALELIST
350
47
  3
DWGPROPS
350
11D
  0
DICTIONARY
  5
D
102
{ACAD_REACTORS
330
C
102
}
330
C
100
AcDbDictionary
281
     1
  0
DICTIONARY
  5
1A
102
{ACAD_REACTORS
330
C
102
}
330
C
100
AcDbDictionary
281
     1
  3
Layout1
350
1E
  3
Layout2
350
26
  3
Model
350
22
  0
DICTIONARY
  5
17
102
{ACAD_REACTORS
330
C
102
}
330
C
100
AcDbDictionary
281
     1
  3
Standard
350
18
  0
DICTIONARY
  5
19
102
{ACAD_REACTORS
330
C
102
}
330
C
100
AcDbDictionary
281
     1
  0
ACDBDICTIONARYWDFLT
  5
E
102
{ACAD_REACTORS
330
C
102
}
330
C
100
AcDbDictionary
281
     1
  3
Normal
350
F
100
AcDbDictionaryWithDefault
340
F
  0
DICTIONARY
  5
47
102
{ACAD_REACTORS
330
C
102
}
330
C
100
AcDbDictionary
281
     1
  3
A0
350
48
  3
A1
350
49
  3
A2
350
4A
  3
A3
350
4B
  3
A4
350
4C
  3
A5
350
4D
  3
A6
350
4E
  3
A7
350
4F
  3
A8
350
50
  3
A9
350
51
  3
B0
350
52
  3
B1
350
53
  3
B2
350
54
  3
B3
350
55
  3
B4
350
56
  3
B5
350
57
  3
B6
350
58
  3
B7
350
59
  3
B8
350
5A
  3
B9
350
5B
  3
C0
350
5C
  3
C1
350
5D
  3
C2
350
5E
  3
C3
350
5F
  3
C4
350
60
  3
C5
350
61
  3
C6
350
62
  3
C7
350
63
  3
C8
350
64
  3
C9
350
65
  3
D0
350
66
  3
D1
350
67
  3
D2
350
68
  0
XRECORD
  5
11D
102
{ACAD_REACTORS
330
C
102
}
330
C
100
AcDbXrecord
280
     1
  1
DWGPROPS COOKIE
  2

  3

  4

  6

  7

  8
b.kav
  9

300
=
301
=
302
=
303
=
304
=
305
=
306
=
307
=
308
=
309
=
 40
0.0
 41
2459741.467376771
 42
2459741.467378368
  1

 90
        0
  0
LAYOUT
  5
1E
102
{ACAD_REACTORS
330
1A
102
}
330
1A
100
AcDbPlotSettings
  1

  2
none_device
  4

  6

 40
0.0
 41
0.0
 42
0.0
 43
0.0
 44
0.0
 45
0.0
 46
0.0
 47
0.0
 48
0.0
 49
0.0
140
0.0
141
0.0
142
1.0
143
1.0
 70
   688
 72
     1
 73
     0
 74
     5
  7

 75
    16
147
1.0
148
0.0
149
0.0
100
AcDbLayout
  1
Layout1
 70
     1
 71
     1
 10
0.0
 20
0.0
 11
420.0
 21
297.0
 12
0.0
 22
0.0
 32
0.0
 14
1.0000000000E+20
 24
1.0000000000E+20
 34
1.0000000000E+20
 15
-1.0000000000E+20
 25
-1.0000000000E+20
 35
-1.0000000000E+20
146
0.0
 13
0.0
 23
0.0
 33
0.0
 16
1.0
 26
0.0
 36
0.0
 17
0.0
 27
1.0
 37
0.0
 76
     0
330
1B
  0
LAYOUT
  5
26
102
{ACAD_REACTORS
330
1A
102
}
330
1A
100
AcDbPlotSettings
  1

  2
none_device
  4

  6

 40
0.0
 41
0.0
 42
0.0
 43
0.0
 44
0.0
 45
0.0
 46
0.0
 47
0.0
 48
0.0
 49
0.0
140
0.0
141
0.0
142
1.0
143
1.0
 70
   688
 72
     1
 73
     0
 74
     5
  7

 75
    16
147
1.0
148
0.0
149
0.0
100
AcDbLayout
  1
Layout2
 70
     1
 71
     2
 10
0.0
 20
0.0
 11
0.0
 21
0.0
 12
0.0
 22
0.0
 32
0.0
 14
0.0
 24
0.0
 34
0.0
 15
0.0
 25
0.0
 35
0.0
146
0.0
 13
0.0
 23
0.0
 33
0.0
 16
1.0
 26
0.0
 36
0.0
 17
0.0
 27
1.0
 37
0.0
 76
     0
330
23
  0
LAYOUT
  5
22
102
{ACAD_REACTORS
330
1A
102
}
330
1A
100
AcDbPlotSettings
  1

  2
none_device
  4
Letter_(8.50_x_11.00_Inches)
  6

 40
6.35
 41
6.35
 42
6.35000508
 43
6.35000508
 44
215.9
 45
279.4
 46
0.0
 47
0.0
 48
0.0
 49
0.0
140
0.0
141
0.0
142
1.0
143
1.0
 70
  1712
 72
     1
 73
     0
 74
     0
  7

 75
     0
147
1.0
148
0.0
149
0.0
100
AcDbLayout
  1
Model
 70
     1
 71
     0
 10
0.0
 20
0.0
 11
279.4
 21
215.9
 12
0.0
 22
0.0
 32
0.0
 14
0.0
 24
0.0
 34
0.0
 15
279.4
 25
215.9
 35
0.0
146
0.0
 13
0.0
 23
0.0
 33
0.0
 16
1.0
 26
0.0
 36
0.0
 17
0.0
 27
1.0
 37
0.0
 76
     0
330
1F
331
29
  0
MLINESTYLE
  5
18
102
{ACAD_REACTORS
330
17
102
}
330
17
100
AcDbMlineStyle
  2
Standard
 70
     0
  3

 62
   256
 51
90.0
 52
90.0
 71
     2
 49
0.5
 62
   256
  6
BYLAYER
 49
-0.5
 62
   256
  6
BYLAYER
  0
ACDBPLACEHOLDER
  5
F
102
{ACAD_REACTORS
330
E
102
}
330
E
  0
SCALE
  5
48
102
{ACAD_REACTORS
330
47
102
}
330
47
100
AcDbScale
 70
     0
300
1:1
140
1.0
141
1.0
290
     1
  0
SCALE
  5
49
102
{ACAD_REACTORS
330
47
102
}
330
47
100
AcDbScale
 70
     0
300
1:2
140
1.0
141
2.0
290
     0
  0
SCALE
  5
4A
102
{ACAD_REACTORS
330
47
102
}
330
47
100
AcDbScale
 70
     0
300
1:4
140
1.0
141
4.0
290
     0
  0
SCALE
  5
4B
102
{ACAD_REACTORS
330
47
102
}
330
47
100
AcDbScale
 70
     0
300
1:5
140
1.0
141
5.0
290
     0
  0
SCALE
  5
4C
102
{ACAD_REACTORS
330
47
102
}
330
47
100
AcDbScale
 70
     0
300
1:8
140
1.0
141
8.0
290
     0
  0
SCALE
  5
4D
102
{ACAD_REACTORS
330
47
102
}
330
47
100
AcDbScale
 70
     0
300
1:10
140
1.0
141
10.0
290
     0
  0
SCALE
  5
4E
102
{ACAD_REACTORS
330
47
102
}
330
47
100
AcDbScale
 70
     0
300
1:16
140
1.0
141
16.0
290
     0
  0
SCALE
  5
4F
102
{ACAD_REACTORS
330
47
102
}
330
47
100
AcDbScale
 70
     0
300
1:20
140
1.0
141
20.0
290
     0
  0
SCALE
  5
50
102
{ACAD_REACTORS
330
47
102
}
330
47
100
AcDbScale
 70
     0
300
1:30
140
1.0
141
30.0
290
     0
  0
SCALE
  5
51
102
{ACAD_REACTORS
330
47
102
}
330
47
100
AcDbScale
 70
     0
300
1:40
140
1.0
141
40.0
290
     0
  0
SCALE
  5
52
102
{ACAD_REACTORS
330
47
102
}
330
47
100
AcDbScale
 70
     0
300
1:50
140
1.0
141
50.0
290
     0
  0
SCALE
  5
53
102
{ACAD_REACTORS
330
47
102
}
330
47
100
AcDbScale
 70
     0
300
1:100
140
1.0
141
100.0
290
     0
  0
SCALE
  5
54
102
{ACAD_REACTORS
330
47
102
}
330
47
100
AcDbScale
 70
     0
300
2:1
140
2.0
141
1.0
290
     0
  0
SCALE
  5
55
102
{ACAD_REACTORS
330
47
102
}
330
47
100
AcDbScale
 70
     0
300
4:1
140
4.0
141
1.0
290
     0
  0
SCALE
  5
56
102
{ACAD_REACTORS
330
47
102
}
330
47
100
AcDbScale
 70
     0
300
8:1
140
8.0
141
1.0
290
     0
  0
SCALE
  5
57
102
{ACAD_REACTORS
330
47
102
}
330
47
100
AcDbScale
 70
     0
300
10:1
140
10.0
141
1.0
290
     0
  0
SCALE
  5
58
102
{ACAD_REACTORS
330
47
102
}
330
47
100
AcDbScale
 70
     0
300
100:1
140
100.0
141
1.0
290
     0
  0
SCALE
  5
59
102
{ACAD_REACTORS
330
47
102
}
330
47
100
AcDbScale
 70
     0
300
1/128" = 1'-0"
140
0.0078125
141
12.0
290
     0
  0
SCALE
  5
5A
102
{ACAD_REACTORS
330
47
102
}
330
47
100
AcDbScale
 70
     0
300
1/64" = 1'-0"
140
0.015625
141
12.0
290
     0
  0
SCALE
  5
5B
102
{ACAD_REACTORS
330
47
102
}
330
47
100
AcDbScale
 70
     0
300
1/32" = 1'-0"
140
0.03125
141
12.0
290
     0
  0
SCALE
  5
5C
102
{ACAD_REACTORS
330
47
102
}
330
47
100
AcDbScale
 70
     0
300
1/16" = 1'-0"
140
0.0625
141
12.0
290
     0
  0
SCALE
  5
5D
102
{ACAD_REACTORS
330
47
102
}
330
47
100
AcDbScale
 70
     0
300
3/32" = 1'-0"
140
0.09375
141
12.0
290
     0
  0
SCALE
  5
5E
102
{ACAD_REACTORS
330
47
102
}
330
47
100
AcDbScale
 70
     0
300
1/8" = 1'-0"
140
0.125
141
12.0
290
     0
  0
SCALE
  5
5F
102
{ACAD_REACTORS
330
47
102
}
330
47
100
AcDbScale
 70
     0
300
3/16" = 1'-0"
140
0.1875
141
12.0
290
     0
  0
SCALE
  5
60
102
{ACAD_REACTORS
330
47
102
}
330
47
100
AcDbScale
 70
     0
300
1/4" = 1'-0"
140
0.25
141
12.0
290
     0
  0
SCALE
  5
61
102
{ACAD_REACTORS
330
47
102
}
330
47
100
AcDbScale
 70
     0
300
3/8" = 1'-0"
140
0.375
141
12.0
290
     0
  0
SCALE
  5
62
102
{ACAD_REACTORS
330
47
102
}
330
47
100
AcDbScale
 70
     0
300
1/2" = 1'-0"
140
0.5
141
12.0
290
     0
  0
SCALE
  5
63
102
{ACAD_REACTORS
330
47
102
}
330
47
100
AcDbScale
 70
     0
300
3/4" = 1'-0"
140
0.75
141
12.0
290
     0
  0
SCALE
  5
64
102
{ACAD_REACTORS
330
47
102
}
330
47
100
AcDbScale
 70
     0
300
1" = 1'-0"
140
1.0
141
12.0
290
     0
  0
SCALE
  5
65
102
{ACAD_REACTORS
330
47
102
}
330
47
100
AcDbScale
 70
     0
300
1-1/2" = 1'-0"
140
1.5
141
12.0
290
     0
  0
SCALE
  5
66
102
{ACAD_REACTORS
330
47
102
}
330
47
100
AcDbScale
 70
     0
300
3" = 1'-0"
140
3.0
141
12.0
290
     0
  0
SCALE
  5
67
102
{ACAD_REACTORS
330
47
102
}
330
47
100
AcDbScale
 70
     0
300
6" = 1'-0"
140
6.0
141
12.0
290
     0
  0
SCALE
  5
68
102
{ACAD_REACTORS
330
47
102
}
330
47
100
AcDbScale
 70
     0
300
1'-0" = 1'-0"
140
12.0
141
12.0
290
     0
  0
ENDSEC
  0
EOF
